Zao - Free The Three Chords & Tabs

 

Free The Three Chords & Tabs

Zao Chords & Tabs

Version: 1 Type: Tab 0 ratings
1 star 2 stars 3 stars 4 stars 5 stars
comments

Free The Three Tab

   
-------------------------------------------------------------------------------
			     Free the Three - Zao
-------------------------------------------------------------------------------

Tabbed by: Scott
Email: lbopm@yahoo.com

Tuning: Drop C (can be played in Drop D but it just sounds ALOT higher then the song)

| /  slide up
| \  slide down
| h  hammer-on
| p  pull-off
| *  pinch harmonic
| .  palm mute

This is pretty much 99% right the Pinch Harmonics might be off but the rest is right. 
This is in the order of the song however some parts will have to be repeated before moving on. 
Figure it out.


Intro Riff
e|---------------------------------------------------------------------------|
B|---------------------------------------------------------------------------|
G|-----------------------------------3*--------------------------------------|
D|-12\-0-0-0-0-0-0-0-0-0-0-0-0-1-2-3-----------------------------------------|
A|-12\-0-0-0-0-0-0-0-0-0-0-0-0-1-2-3-----------------------------------------|
D|-12\-0-0-0-0-0-0-0-0-0-0-0-0-1-2-3-----------------------------------------|
       .............................
e|---------------------------------------------------------------------------|
B|---------------------------------------------------------------------------|
G|--------------------------------3-5*---------------------------------------|
D|--0-0-0-0-0-0-0-0-0-0-0-0-1-2-3--------------------------------------------|
A|--0-0-0-0-0-0-0-0-0-0-0-0-1-2-3--------------------------------------------|
D|--0-0-0-0-0-0-0-0-0-0-0-0-1-2-3--------------------------------------------|
    .............................
e|---------------------------------------------------------------------------|
B|---------------------------------------------------------------------------|
G|--------------------------------3-3*/4*------------------------------------|
D|--0-0-0-0-0-0-0-0-0-0-0-0-1-2-3--------------------------------------------|
A|--0-0-0-0-0-0-0-0-0-0-0-0-1-2-3--------------------------------------------|
D|--0-0-0-0-0-0-0-0-0-0-0-0-1-2-3--------------------------------------------|
    .............................

Part After Intro
e|---------------------------------------------------------------------------|
B|---------------------------------------------------------------------------|
G|-------------2-7---2-5-----------------------------------------------------|
D|-------------2-7---2-5-----------------------------------------------------|
A|-------------0-5---0-3-----------------------------------------------------|
D|-0-0-0-0-0-0----0-0----0-0-0-0-0-0-----------------------------------------|
   ...........    ...    ...........  

Sweet Riff
e|-8-9-8-5-6-5-5/6\5-8-9-8-5-6-5-|-8-9-8-5-6-5-5/6\5-5-6-8-10----------------|
B|-------------------------------|-------------------------------------------|
G|-5-6-5-2-3-2-2/3\2-5-6-5-2-3-2-|-5-6-5-2-3-2-2/3\2-2-3-5-7-----------------|
D|-------------------------------|-------------------------------------------|
A|-------------------------------|-------------------------------------------|
D|-------------------------------|-------------------------------------------|

Verse... "you failed to do your job..."
e|-----------------------|--------------------------|--------------------------|
B|-----------------------|--------------------------|--------------------------|
G|-----8---8\7-4-5-4-8-7-|---------8\7-4-5-4-/10-9--|--------------------------|
D|-----8---8\7-4-5-4-8-7-|---------8\7-4-5-4-/10-9--|--------------------------|
A|-----6---6\5-2-3-2-6-5-|---------6\5-2-3-2--/8-7--|--------------------------|
D|-0-0---0---------------|-0-0-0-0------------------|-0-0-0-0-0-0--------------|
   ...   .                 .......                    ...........

Verse 2.... "you lie you lie..."
e|---------------------------------------------------------------------------|
B|---------------------------------------------------------------------------|
G|-7---8---7---8---7---7/8\7-------------------------------------------------|
D|-7---8---7---8---7---7/8\7-7-----------------------------------------------|
A|-5---6---5---6---5---5/6\5-7-----------------------------------------------|
D|---0---0---0---0---0-------7-----------------------------------------------|
     .   .   .   .   .
[ Tab from: http://www.guitartabs.cc/tabs/z/zao/free_the_three_tab.html ]
Verse 3.... "superstition... unholy children..."
e|-----------------------------------------------------|----------------------|
B|-----------------------------------------------------|----------------------|
G|-----------------------------------8p7-7p6-6p5-5-3*--|----------------------|
D|----------8p7-7p6-6p5-5-3*---------------------------|-7--------------------|
A|-----------------------------------------------------|-7--------------------|
D|-0-1-2-3-------------------0-1-2-3-------------------|-7--------------------|
   .......                   .......

(Bridge goes here but I dont know it-- too weird)

Spaced-out Heavy Stuff "Can you show me how they're guilty"
e|---------------------------------------------------------------------------|
B|---------------------------------------------------------------------------|
G|---------------------------------------------------------------------------|
D|-7-7-7-7-3-3-3-3-7-7-7-7-3-3-3-3/5-----------------------------------------|
A|-7-7-7-7-3-3-3-3-7-7-7-7-3-3-3-3/5-----------------------------------------|
D|-7-7-7-7-3-3-3-3-7-7-7-7-3-3-3-3/5-----------------------------------------|

"You liars... you killers..."
e|---------------------------------------------------------------------------|
B|---------------------------------------------------------------------------|
G|-----/8-7------------------------------------------------------------------|
D|-0-2-/8-7-3-3-5-3----------------------------------------------------------|
A|-0-2-/6-5-3-3-5-3----------------------------------------------------------|
D|-0-2------3-3-5-3----------------------------------------------------------|

Next.. (closer together = faster)
e|---------------------------------------------------------------------------|
B|---------------------------------------------------------------------------|
G|---------------------------------------------------------------------------|
D|-0-0-0-000-000-------------------------------------------------------------|
A|-0-0-0-000-000-------------------------------------------------------------|
D|-0-0-0-000-000-------------------------------------------------------------|
     ... ... ...

The Coolest Riff of the Song (takes some time to sound right, the rythem might be
wrong but notes = right)
e|---------------------------------------------------------------------------|
B|---------------------------------------------------------------------------|
G|---------------------------------------------------------------------------|
D|---------------------------------------------------------------------------|
A|-------0-3-5-3-------------------------------------------------------------|
D|-0-2-3---------6-3-5p3-2-3p2-6---------------------------------------------|

Then it goes back to this with no vocals
e|-----------------------|--------------------------|--------------------------|
B|-----------------------|--------------------------|--------------------------|
G|-----8---8\7-4-5-4-8-7-|---------8\7-4-5-4-/10-9--|--------------------------|
D|-----8---8\7-4-5-4-8-7-|---------8\7-4-5-4-/10-9--|--------------------------|
A|-----6---6\5-2-3-2-6-5-|---------6\5-2-3-2--/8-7--|--------------------------|
D|-0-0---0---------------|-0-0-0-0------------------|-0-0-0-0-0-0--------------|
   ...   .                 .......                    ...........

Then it goes back to this with vocals
e|---------------------------------------------------------------------------|
B|---------------------------------------------------------------------------|
G|-7---8---7---8---7---7/8\7-------------------------------------------------|
D|-7---8---7---8---7---7/8\7-7-----------------------------------------------|
A|-5---6---5---6---5---5/6\5-7-----------------------------------------------|
D|---0---0---0---0---0-------7-----------------------------------------------|
     .   .   .   .   .

And if you didn't figure it out already it ends on 

D|-7-|
A|-7-|
D|-7-|




Lyrics

You failed to do your job. Superstitious cover up. They'll pay you because of
your mistakes.
You lie, you lie, you lie and they pay. You fail, you fail, you fail and they
pay. Superstition. 
Unholy children. Blinded vision. false ambition. Can you show me how they're
guilty? YOu liars, you killers, 
You fools of superstition. Blame the (so-called) unholy children with your blind
vision and your false ambition. 
FREE THE THREE.
 
===============================================================================
Comments