Zao - Foresight Chords & Tabs

 

Foresight Chords & Tabs

Zao Chords & Tabs

Version: 1 Type: Bass Tab 0 ratings
1 star 2 stars 3 stars 4 stars 5 stars
comments

Foresight Bass Tab

Drop D tuning

Riff 1 
G |--------------------|
D |--------------------|
A |--------------------|
D |--1-1-1--1-22-1-22--|

Riff 2 
G |---------------------------------------|
D |---------------------------------------|
A |------------3-5h6p5-----------0-0h1p0--|
D |--111111111---------111111111----------|

Riff 3       (Three times)	(On the fourth time)
G |-------------------------|-----------------------|
D |-------------------------|-----------------------|
A |-----5-7---8-10-8---8p7--|-----5-7---10---8---7--|
D |--00-----0--------0------|--00-----0----0---0----|
[ Tab from: http://www.guitartabs.cc/tabs/z/zao/foresight_btab.html ]
Riff 4
G |----------------------------------------|
D |----------------------------------------|
A |----------------------------------------|
D |--1~-3-1-3-1~-3-1-3-1~-3-1-3-111111111--|

Riff 5
G |---------------------|
D |---------------------|
A |---------------------|
D |--1111-1111-3-1-3-1--|

Riff 6
G |-------------------------------|
D |-------------------------------|
A |------------------0~-0000-0-0--|
D |--1~-1111-1~-1111--------------|

Riff 3

Riff 7
G |---------------------------|
D |---------------------------|
A |---------------------------|
D |--1-1-1-1-11-1-1-1-1-111~--|

Riff 8
G |------------------|
D |------------------|
A |-------------0-0--|
D |--1-11-11-11------|

Riff 7
Comments