Zao - Exchange Chords & Tabs

 

Exchange Chords & Tabs

Zao Chords & Tabs

Version: 1 Type: Bass Tab 0 ratings
1 star 2 stars 3 stars 4 stars 5 stars
comments

Exchange Bass Tab

Drop D tuning

Riff 1 (0:00)
G |-------------------------------|
D |-------------------------------|
A |-------------------------------|
D |--1~-1~-1~-xxx-1--1~-1~-1~-2~--|

Fill 1
G |----------------|
D |----------------|
A |----------------|
D |--1-1--1-1--11--|

Riff 2 
G |-----------------------------|
D |-----------------------------|
A |-----------------------------|
D |--1-1-1-1-3333-1-1-1-1-4444--|

Riff 3
G |--------------------|
D |--------------------|
A |--------------------|
D |--1-11-0-1-111-1h3--|

Riff 4 
G |---------------------|
D |---------------------|
A |--6-8p6-6-8-6-6-5h6--|
D |---------------------|
[ Tab from: http://www.guitartabs.cc/tabs/z/zao/exchange_btab.html ]
Riff 5
G |-------------------------------|
D |-------------------------------|
A |-------------------------------|
D |--222222-333333-555555-333333--|

Riff 6
G |--------------------------|
D |--------------------------|
A |--------------------------|
D |--4-33-3-22-4-33-333-444--|

Riff 7 
G |--------------------------|
D |--------------------------|
A |------111-----111----11---|
D |--111-----111-----11------|

Riff 8 
G |--------------------------------------|
D |--------------------------------------|
A |--7-8p7-7-8-7-7-5-7-8p7-10-8-7-7-7h8--|
D |--------------------------------------|

Fill 2 
G |---------------------------|
D |---------------------------|
A |---------------------------|
D |--11--111--11111111111111--|

Riff 5 

Riff 9 
G |-----------------------------|
D |-----------------------------|
A |-----------------------------|
D |--4-3-2-2-3-2-4-3-2-333-444--|
Comments