Zao - Breath Of The Black Muse Chords & Tabs

 

Breath Of The Black Muse Chords & Tabs

Zao Chords & Tabs

Version: 1 Type: Bass Tab 0 ratings
1 star 2 stars 3 stars 4 stars 5 stars
comments

Breath Of The Black Muse Bass Tab

   
-------------------------------------------------------------------------------
		Breath of the Black Muse - Zao
-------------------------------------------------------------------------------

Tabbed By : Vic Jackson		
e-mail: vjackson83@msn.com	

Tuning: CGCF

After submitting this tab earlier, I realized a few notes were off.  Sorry for
trying to post garbage! Anyway, this is how Breath of the Black Muse is really played!


1ST VERSE (0:03)

F|---------------------------------------------------------------------------|
C|---------------------------------------------------------------------------|
G|-------3--------6--------3-----------------3--------6--------3-------------|
C|-0-3-4----4-3-4----0-3-4----4-3-4-4--0-3-4----4-3-4----0-3-4----4-3-4-4----|

F|---------------------------------------------------------------------------|
C|---------------------------------------------------------------------------|
G|-------3--------6--------3-----------------3--------6--------3-------------|
C|-0-3-4----4-3-4----0-3-4----4-3-4-4--0-3-4----4-3-4----0-3-4----4-3-4-4----|

F|---------------------------------------------------------------------------|
C|---------------------------------------------------------------------------|
G|-------3-----------------3-----------------3-----------------3-------------|
C|-0-3-4----4-3-4-1--0-3-4----4-3-4-4--0-3-4----4-3-4-1--0-3-4----4-3-4-4----|
     . . .    . . .    . . .    .      . . .    . . .    . . .    .
F|---------------------------------------------------------------------------|
C|---------------------------------------------------------------------------|
G|-------3-----------------3-----------------3-----------------3-------------|
C|-0-3-4----4-3-4-1--0-3-4----4-3-4-4--0-3-4----4-3-4-1--0-3-4----4-3-4-4----|
     . . .    . . .    . . .    .      . . .    . . .    . . .    .

F|---------------------------------------------------------------------------|
C|---------------------------------------------------------------------------|
G|-------3------6------3-----------------------------------------------------|
C|-0-3-4----4-3----3-4----3-4p0----------------------------------------------|
   . . . .  . . .  . . .  .


PRE CHORUS (0:29)

F|---------------------------------------------------------------------------|
C|---------------------------------------------------------------------------|
G|---------------------------------------------------------------------------|
C|-0-(0)--0-(0)-0--3-3-3-3--3-3-3-4--4-4-4-4--4-4-3-0------------------------|
   .      .     .
F|---------------------------------------------------------------------------|
C|---------------------------------------------------------------------------|
G|---------------------------------------------------------------------------|
C|-0-(0)--0-(0)-0--3-3-3-3--3-3-3-4--4-4-4-4--4-4-3-0------------------------|
   .      .     .
F|---------------------------------------------------------------------------|
C|---------------------------------------------------------------------------|
G|---------------------------------------------------------------------------|
C|-0-(0)--0-(0)-0--3-3-3-3--3-3-3-4--4-4-4-4--4-4-3-0------------------------|
   .      .     .
F|---------------------------------------------------------------------------|
C|---------------------------------------------------------------------------|
G|---------------------------------------------------------------------------|
C|-0-(0)--0-(0)-0--3-3-3-3--3-3-3-4--4-4-4-4--4-4-3-0------------------------|
   .      .     .


2ND VERSE (0:54)

F|---------------------------------------------------------------------------|
C|---------------------------------------------------------------------------|
G|-------3--------6--------3-----------------3--------6--------3-------------|
C|-0-3-4----4-3-4----0-3-4----4-3-4-4--0-3-4----4-3-4----0-3-4----4-3-4-4----|

F|---------------------------------------------------------------------------|
C|---------------------------------------------------------------------------|
G|-------3--------6--------3-----------------3--------6--------3-------------|
C|-0-3-4----4-3-4----0-3-4----4-3-4-4--0-3-4----4-3-4----0-3-4----4-3-4-4----|

F|---------------------------------------------------------------------------|
C|---------------------------------------------------------------------------|
G|-------3--------6--------3-----------------3--------6--------3-------------|
C|-0-3-4----4-3-4----0-3-4----4-3-4-4--0-3-4----4-3-4----0-3-4----4-3-4-4----|
     . . .    . . .    . . .    .        . . .    . . .    . . . 
F|---------------------------------------------------------------------------|
C|---------------------------------------------------------------------------|
G|-------3--------6--------3-----------------3--------6--------3-------------|
C|-0-3-4----4-3-4----0-3-4----4-3-4-4--0-3-4----4-3-4----0-3-4----4-3-4-4----|
     . . .    . . .    . . .    .        . . .    . . .    . . . 


PRE CHORUS (1:18)
[ Tab from: http://www.guitartabs.cc/tabs/z/zao/breath_of_the_black_muse_btab.html ]
F|---------------------------------------------------------------------------|
C|---------------------------------------------------------------------------|
G|---------------------------------------------------------------------------|
C|-0-(0)--0-(0)-0--3-3-3-3--3-3-3-4--4-4-4-4--4-4-3-0------------------------|
   .      .     .
F|---------------------------------------------------------------------------|
C|---------------------------------------------------------------------------|
G|---------------------------------------------------------------------------|
C|-0-(0)--0-(0)-0--3-3-3-3--3-3-3-4--4-4-4-4--4-4-3-0------------------------|
   .      .     .
F|---------------------------------------------------------------------------|
C|---------------------------------------------------------------------------|
G|---------------------------------------------------------------------------|
C|-0-(0)--0-(0)-0--3-3-3-3--3-3-3-4--4-4-4-4--4-4-3-0------------------------|
   .      .     .
F|---------------------------------------------------------------------------|
C|---------------------------------------------------------------------------|
G|---------------------------------------------------------------------------|
C|-0-(0)--0-(0)-0--3-3-3-3--3-3-3-4--4-4-4-4--4-4-4-4------------------------|
   .      .     .


CHORUS (1:40)

F|---------------------------------------------------------------------------|
C|---------------------------------------------------------------------------|
G|-2-2-2-2--2-2-2-2--2-2-2-2--2-2/4-4--1-1-1-1--1-1-1-1--1-1-1-1--1-1-1-1----|
C|---------------------------------------------------------------------------|

F|---------------------------------------------------------------------------|
C|---------------------------------------------------------------------------|
G|---------------------------------------------------------------------------|
C|-3-3-3-3--3-3-3-3--3-3-3-3--3-3-3-3--3-3-3-3--3-3-3-3--3-3-3-3--3-3-3-3----|

F|---------------------------------------------------------------------------|
C|---------------------------------------------------------------------------|
G|-2-2-2-2--2-2-2-2--2-2-2-2--2-2/4-4--1-1-1-1--1-1-1-1--1-1-1-1--1-1-1-1----|
C|---------------------------------------------------------------------------|

F|---------------------------------------------------------------------------|
C|---------------------------------------------------------------------------|
G|---------------------------------------------------------------------------|
C|-3-3-3-3--3-3-3-3--3-3-3-3--3-3-3-3--3-3-3-3--3-3-3-3--3-3-3-3--3-3-3-3----|

F|---------------------------------------------------------------------------|
C|---------------------------------------------------------------------------|
G|-2-2-2-2--2-2-2-2--2-2-2-2--2-2/4-4--1-1-1-1--1-1-1-1--1-1-1-1--1-1-1-1----|
C|---------------------------------------------------------------------------|

F|---------------------------------------------------------------------------|
C|---------------------------------------------------------------------------|
G|---------------------------------------------------------------------------|
C|-3-3-3-3--3-3-3-3--3-3-3-3--3-3-3-3--3-3-3-3--3-3-3-3--3-3-3-3--3-3-3-3----|

F|---------------------------------------------------------------------------|
C|---------------------------------------------------------------------------|
G|-2-2-2-2--2-2-2-2--2-2-2-2--2-2/4-4--1-1-1-1--1-1-1-1--1-1-1-1--1-1-1-1----|
C|---------------------------------------------------------------------------|

F|---------------------------------------------------------------------------|
C|---------------------------------------------------------------------------|
G|---------------------------------------------------------------------------|
C|-3-3-3-3--3-3-3-3--3-3-3-3--3-3-3-3--3-3-3-3--3-3-3-3--3-3-3-3--3-3-3-3-0--|

F|---------------------------------------------------------------------------|
C|---------------------------------------------------------------------------|
G|---------------------------------------------------------------------------|
C|-(0)----(0)----(0)----(0)--------------------------------------------------|


BREAKDOWN (2:37) *PLAY 16 TIMES*

F|---------------------------------------------------------------------------|
C|---------------------------------------------------------------------------|
G|---------------------------------------------------------------------------|
C|-0-0-0--0-0-0--0-0-0--0-0-0--0--0------------------------------------------|
   . . .  . . .  . . .  . . .  .  .


CHORUS (3:23)

F|---------------------------------------------------------------------------|
C|---------------------------------------------------------------------------|
G|-2-2-2-2--2-2-2-2--2-2-2-2--2-2/4-4--1-1-1-1--1-1-1-1--1-1-1-1--1-1-1-1----|
C|---------------------------------------------------------------------------|

F|---------------------------------------------------------------------------|
C|---------------------------------------------------------------------------|
G|---------------------------------------------------------------------------|
C|-3-3-3-3--3-3-3-3--3-3-3-3--3-3-3-3--3-3-3-3--3-3-3-3--3-3-3-3--3-3-3-3----|

F|---------------------------------------------------------------------------|
C|---------------------------------------------------------------------------|
G|-2-2-2-2--2-2-2-2--2-2-2-2--2-2/4-4--1-1-1-1--1-1-1-1--1-1-1-1--1-1-1-1----|
C|---------------------------------------------------------------------------|

F|---------------------------------------------------------------------------|
C|---------------------------------------------------------------------------|
G|---------------------------------------------------------------------------|
C|-3-3-3-3--3-3-3-3--3-3-3-3--3-3-3-3--3-3-3-3--3-3-3-3--3-3-3-3--3-3-3-3----|


OUTRO (3:46) *PLAY 4 TIMES*

F|---------------------------------------------------------------------------|
C|---------------------------------------------------------------------------|
G|---------------------------------------------------------------------------|
C|-0-0-0--0-0-0--0-0-0--0-0-0--0--0------------------------------------------|
   . . .  . . .  . . .  . . .  .  .




| /  slide up
| \  slide down
| h  hammer-on
| p  pull-off
| ~  vibrato
| +  harmonic
| x  Mute note
===============================================================================
Comments