Zao - All Else Failed Chords & Tabs

 

All Else Failed Chords & Tabs

Zao Chords & Tabs

Version: 1 Type: Bass Tab 0 ratings
1 star 2 stars 3 stars 4 stars 5 stars
comments

All Else Failed Bass Tab

Drop D tuning

Riff 1 (0:15)  (0:40) 
G |----------|-----------------------------------|
D |----------|-----------------------------------|
A |----------|-----------------------------------|
D |--1~--1~--|--1111111111111111111111111111111--|

Riff 2 (0:46)
G |-----------------------------------|
D |-----------------------------------|
A |-----------------------------------|
D |--1-11-11-1-11-11-0-00-00-3-33-33--|

G |------------------------|
D |------------------------|
A |--------------------1~--|
D |--11-111--11-11-111-----|
[ Tab from: http://www.guitartabs.cc/tabs/z/zao/all_else_failed_btab.html ]
Fill 1
G |---------|
D |---------|
A |-----1~--|
D |--11-----|

Fill 2
G |---------|
D |---------|
A |---------|
D |--11-0~--|

Riff 4
G |-----------------------------------------------|
D |------------0---------2---------5---------3p2--|
A |-----------------------------------------------|
D |--11-11-111---111-111---111-111---111-111------|

Riff 2

Riff 5
G |----------------------------------------|
D |----------------------------------------|
A |----------------------------------------|
D |--1-1-1-1-0-0-0-3-3--1-1-1-1-5-5-5-3-3--|

Riff 6
G |-----------------|
D |-----------------|
A |------------3-2--|
D |--1-1-1-111------|

Riff 1
Riff 2
Comments