Zao - 5 Year Winter Chords & Tabs

 

5 Year Winter Chords & Tabs

Zao Chords & Tabs

Version: 2 Type: Tab 0 ratings
1 star 2 stars 3 stars 4 stars 5 stars
comments

5 Year Winter Tab

Band:Zao
Song:5 Year Winter
Album:Self-titled
Tabbed By:Matt Tompkins

Tuning:Drop C

Key:
h     - hammer on
p     - pull off
*     - pinch harmonic
pm..  - palm muted
v     - vibrato
x     - dead note
~     - hold note

I'm pretty sure this version is 100 % correct. the other version was only off a little. 
rate and ENJOY


Riff 1 - light,fuzzy distortion
|------------------------|
|------------------------|
|------------------------|
|--3-1-0----x-x-x-x-x-x--|
|--3-1-0-1b-x-x-x-x-x-x--|
|--3-1-0-0--x-x-x-x-x-x--|

Riff 2 - heavy distortion
|----------------|
|----------------|
|----------------|
|--3-1-0----0-0--|
|--3-1-0----0-0--|
|--3-1-0-3b-0-0--|

Riff 3 -
|-----------|
|-----------|
|-----------|
|--0-0-0-0--|
|--0-0-0-0--|
|--0-0-0-0--|
pm.........

Riff 4 - 2 guitars

guitar 1 -
|---------------|
|---------------|
|---------------|
|---------------|
|--------1b-----|
|--3b-1b-0--3b--|

Guitar 2 -
|-------------------|
|-------------------|
|-------------------|
|-------------------|
|----------1*v------|
|--3*v-1*v-----3*v--|

Riff 2
Riff 3 & solo
Riff 4
[ Tab from: http://www.guitartabs.cc/tabs/z/zao/5_year_winter_tab_ver_2.html ]
Riff 5 - 2 guitars
Guitar 1-
|--------------------------------------|
|--------------------------------------|
|-------------------9-10-13---9-10-12--|
|-------------------x-x--x----x-x--x---|
|-------------------7-8--11---7-8--10--|
|--0000000000000000---------0----------|
pm ................         .

Guitar 2 - hold note to end of measure
|-----------------------------------------|
|-----------------------------------------|
|-----------------------------------------|
|--0~~~~~~~~~~-------------------------0--|
|--0~~~~~~~~~~-------------------------0--|
|--0~~~~~~~~~~-------------------------0--|
pm                                     .

Guitar 1 -
|----------------------------------------------------|
|----------------------------------------------------|
|----------------------------------------------------|
|----------------------------------------------------|
|-------------------5h8p5h8p5h8p5h8-4h7p4h7p4h7p4h7--|
|--0000000000000000----------------------------------|
pm ................

Guitar 2 is silent
play all of Riff 5 x2
Play Riff 5 again but both guitars play guitar 1's part

Riff 6 -
|-------|
|-------|
|-------|
|--0-0--|
|--0-0--|
|--0-0--|
pm . .

Riff 7 -
|---------------------|
|---------------------|
|------17--17--17-17--|
|--0-0-x---x---x--x---|
|--0-0-16--16--16-16--|
|--0-0----------------|
pm . .


Well thats it...
If you have any questions or comments email me at Pickslide316@aol.com
Comments