Zanguinary - Judas Craddle Chords & Tabs

 

Judas Craddle Chords & Tabs

Zanguinary Chords & Tabs

Version: 1 Type: Tab 0 ratings
1 star 2 stars 3 stars 4 stars 5 stars
comments

Judas Craddle Tab


song name:Judas Craddle

make by: Daniel Wingstrand

band name:Zanguinary


my hotmail      supernickeman@hotmail.com


Intro: only bass the the guitars 4 times

E--------------------------------------------------------------------------------------------
A--------------------------------------------------------------------------------------------
D--------------------------------------------------------------------------------------------
G------3-----3-----3-----7-5-----------------------------------------------------------------
B------3-----3-----3-----7-5-----------------------------------------------------------------
E--0-0-1-0-0-1-0-0-1-0-0-5-3-----------------------------------------------------------------

chorus: repet 4 times

E--------------------------------------------------------------------------------------------
A--------------------------------------------------------------------------------------------
D--------------------------------------------------------------------------------------------
G--5-5-5-5-5-5-5-5-5-5-5-5-5-5-2-2-2-2-2-2-2-2-2-2-2-2-2-2-2---------------------------------
B--5-5-5-5-5-5-5-5-5-5-5-5-5-5-2-2-2-2-2-2-2-2-2-2-2-2-2-2-2---------------------------------
E--3-3-3-3-3-3-3-3-3-3-3-3-3-3-0-0-0-0-0-0-0-0-0-0-0-0-0-0-0---------------------------------

guitar 1  3 times 

E--------------------------------------------------------------------------------------------
A--------------------------------------------------------------------------------------------
D--12-15-14-15---12-15-14-15---12-15-14-15--9-12-11-12--9-12-11-12--9-12-11-12---------------
G--------------------------------------------------------------------------------------------
B--------------------------------------------------------------------------------------------
E--------------------------------------------------------------------------------------------


ref: repet 4 times 

E--------------------------------------------------------------------------------------------
A--------------------------------------------------------------------------------------------
D--------------------------------------------------------------------------------------------
G------3-----3-----3-----7-5-----------------------------------------------------------------
B------3-----3-----3-----7-5-----------------------------------------------------------------
E--0-0-1-0-0-1-0-0-1-0-0-5-3-----------------------------------------------------------------


[ Tab from: http://www.guitartabs.cc/tabs/z/zanguinary/judas_craddle_tab.html ]
E--------------------------------------------------------------------------------------------
A--------------------------------------------------------------------------------------------
D--------------------------------------------------------------------------------------------
G--5-5-5-5-5-5-5-5-5-5-5-5-5-5-2-2-2-2-2-2-2-2-2-2-2-2-2-2-2---------------------------------
B--5-5-5-5-5-5-5-5-5-5-5-5-5-5-2-2-2-2-2-2-2-2-2-2-2-2-2-2-2---------------------------------
E--3-3-3-3-3-3-3-3-3-3-3-3-3-3-0-0-0-0-0-0-0-0-0-0-0-0-0-0-0---------------------------------


second guitar 3 times


E--------------------------------------------------------------------------------------------
A--------------------------------------------------------------------------------------------
D--12-15-14-15---12-15-14-15---12-15-14-15--9-12-11-12--9-12-11-12--9-12-11-12---------------
G--------------------------------------------------------------------------------------------
B--------------------------------------------------------------------------------------------
E--------------------------------------------------------------------------------------------


play four times


E--------------------------------------------------------------------------------------------
A--------------------------------------------------------------------------------------------
D--------------------------------------------------------------------------------------------
G------3-----3-----3-----7-5-----------------------------------------------------------------
B------3-----3-----3-----7-5-----------------------------------------------------------------
E--0-0-1-0-0-1-0-0-1-0-0-5-3-----------------------------------------------------------------




E--------------------------------------------------------------------------------------------
A--------------------------------------------------------------------------------------------
D--------------------------------------------------------------------------------------------
G--5-5-5-5-5-5-5-5-5-5-5-5-5-5-2-2-2-2-2-2-2-2-2-2-2-2-2-2-2---------------------------------
B--5-5-5-5-5-5-5-5-5-5-5-5-5-5-2-2-2-2-2-2-2-2-2-2-2-2-2-2-2---------------------------------
E--3-3-3-3-3-3-3-3-3-3-3-3-3-3-0-0-0-0-0-0-0-0-0-0-0-0-0-0-0---------------------------------



guitar 1-2 and bass play this

E--------------------------------------------------------------------------------------------
A--------------------------------------------------------------------------------------------
D--------------------------------------------------------------------------------------------
G--------------------------------------------------------------------------------------------
B--------------------------------------------------------------------------------------------
E----3-6-5-6----3-6-5-6----3-6-5-6----0-3-2-3----0-3-2-3----0-3-2-3--------------------------




E--------------------------------------------------------------------------------------------
A--------------------------------------------------------------------------------------------
D--------------------------------------------------------------------------------------------
G------3-----3-----3-----7-5-----------------------------------------------------------------
B------3-----3-----3-----7-5-----------------------------------------------------------------
E--0-0-1-0-0-1-0-0-1-0-0-5-3-----------------------------------------------------------------


this song is not so hard but do i anyway have fun whit this one...... any problem write to me 


GOOD LUCK


Comments