Yovee - You Got The Call Chords & Tabs

 

You Got The Call Chords & Tabs

Yovee Chords & Tabs

Version: 1 Type: Tab

You Got The Call Tab

Regular tuning
This is just the intro - sound about right

---------------------|
---------------------|
---0-0-0-0-0-0-0-----|
--4-4-4-4-4-4-4-4-0--|
---------------------|
---------------------|
[ Tab from: http://www.guitartabs.cc/tabs/y/yovee/you_got_the_call_tab.html ]
---------------------|
---------------------|
---2-2-2-2-2-2-2-----|
--2-2-2-2-2-2-2-2-0--|
---------------------|
---------------------|

---------------------|
---------------------|
---1-1-1-1-1-1-1-----|
--4-4-4-4-4-4-4-4-0--|
---------------------|
---------------------|

---------------------|
---------------------|
---2-2-2-2-2-2-2-----|
--2-2-2-2-2-2-2-2-0--|
---------------------|
---------------------|