Youth Group - Piece Of Wood Chords & Tabs

 

Piece Of Wood Chords & Tabs

Youth Group Chords & Tabs

Version: 1 Type: Tab

Piece Of Wood Tab

Intro:

 e-|-----------------------------------------------------------|
 B-|----2------------------------------------------------------|
 G-|-----------------------------------------------------------|
 D-|-------2h3p2-0---------------------------------------------|Repeat 4x
 A-|--3--------------------------------------------------------|
 E-|-----------------------------------------------------------|

[ Tab from: http://www.guitartabs.cc/tabs/y/youth_group/piece_of_wood_tab.html ]
 e-|-----------------------------------------------------------|
 B-|----2------------------------------------------------------|
 G-|-----------------------------------------------------------|
 D-|-------2h3p2-0---------------------------------------------|Repeat 4x
 A-|--0--------------------------------------------------------|
 E-|-----------------------------------------------------------|

Give it a go :)

Sam