Youth Group - Lillian Lies Chords & Tabs

 

Lillian Lies Chords & Tabs

Youth Group Chords & Tabs

Version: 1 Type: Chords 1 rating
1 star 2 stars 3 stars 4 stars 5 stars
comments

Lillian Lies Chords

   
Intro:
	Em	C	G	D	*riff*
E|------0-------0-------1-------2----------------|
B|------0-------1-------0-------3----------------|
G|------0-------0-------0-------2----------------| { X 2 }
D|------2-------2-------0-------0---------0----0-|
A|------2-------3-------2--------------0^2--0^2--|
D|------0---------------3------------------------|

Intro: Em C G D x 2

Em   C      G        D          Em
   Lillian lies to avoid open questions 
     C          G    D      Em
   looks to the sky for intervention 
    C            G         D         Em
   but she cant avoid judgmental compassion 
    C      G     D
   in the void 

Em   C         G     D           Em 
   puts on a face, makes it a brave one
     C             G          D           Em 
   gets herself a seat on a interstate greyhound 
     C               G        D             Em
   when everythings gone at least you got nothing 
    C              G D Em
   that holds on 
    Em C G D
   on..  x4
[ Tab from: http://www.guitartabs.cc/tabs/y/youth_group/lillian_lies_crd.html ]
Em   C            G            D            Em
   Pulls herself up rests her head on the window 
              C           G       D          Em    
   sees her face in the trees suspended in limbo 
    C                 G        D             Em
   when everythings gone at least you got nothing 
    C              G D Em
   that holds on
   Em C G D
   on.. x4


Bridge:
   C         Em                    G 
   You’re a stranger in a country town 
                  D                   C
   the kids all stare, the cars slow down 
               Em                G                D
   you didn’t think you’d be so dumb to just grow old 
              C
   why'd it came along 


Solo chords: Em G D C x2

Em  C          G
   hours slip by 
   D               Em
   the clouds are solo 
       C            G
   the sky doesn’t cover 
    D        Em
   it swallows 
   C G D Em
   -ows x4

Solo 1:
E|------------------------------------------|
B|----3^5------3^5--------------------------|
G|--4----4-4-4----4-4-4v2v0-2-2-2-0---0-----|
D|----------------------------------4---4-2-|
A|------------------------------------------|
D|------------------------------------------|

E|--------------------------------------------------|
B|----3^5------3^5----------------------------------|
G|--4----4-4-4----4-4-4v2v0-2-2-2-0---0-------------|
D|----------------------------------4---4-2-2-0-0^2-|
A|--------------------------------------------------|
D|--------------------------------------------------|
Comments