Youth Group - Forever Young Chords & Tabs

 

Forever Young Chords & Tabs

Youth Group Chords & Tabs

Version: 6 Type: Tab

Forever Young Tab

e-----------------------------------------------------------------------------|
B-----------------------------------------------------------------------------|
G-----11-----11--11----11----11--11----8----8--8-----8----8--8----8----8--8---|
D--9-9---9-9----9---9-9---9-9---9---6-6--6-6--6-------------------------------|
A------------------------------------------------7-7--7-7--7---9-9--9-9--9----|
E-----------------------------------------------------------------------------|

e-----------------------------------------------------------------------------|
B-----------------------------------------------------------------------------|
G-----8----8--8-----8----8--8----6---6----------------------------------------|
D--6-6--6-6--6---------------------9---9--------------------------------------|
A---------------7-7--7-7--7----7----------------------------------------------|
E-----------------------------------------------------------------------------|
[ Tab from: http://www.guitartabs.cc/tabs/y/youth_group/forever_young_tab_ver_6.html ]