Youth Group - Forever Young Chords & Tabs

 

Forever Young Chords & Tabs

Youth Group Chords & Tabs

Version: 5 Type: Tab

Forever Young Tab

i saw all the other tabs for this song and there pritty well way out!!

capo 4th fret


e|-------------------------------------------------------------------------|
b|---------3--------3-----------------3----------3-------------------------|
g|---------------0----------0-----------------0---------0------------------|
d|---5-5------5----------5-------5-5-------5---------5---(5)\2-------------|
a|-------------------------------------------------------------------------|
e|-------------------------------------------------------------------------|
 
[ Tab from: http://www.guitartabs.cc/tabs/y/youth_group/forever_young_tab_ver_5.html ]
e|-------------------------------------------------------------------------|
b|---------0---------0----------------0----------0-------------------------|
g|----------------0--------0-----------------------------------------------|
d|----2-2------2--------2--------------------2---------2-------------------|
a|-------------------------------3-3------3---------3----------------------|
e|-------------------------------------------------------------------------|


e|-------------------------------------------------------------------------|
b|----------0-------0----------------0--------0----------------------------|
g|-------------------------0------0--------0--------0----------------------|
d|----0-0------0-0-----0------2--------2--------2--------------------------|
a|-------------------------------------------------------------------------|
e|-------------------------------------------------------------------------|
 
 
e|-------------------------------------------------------------------------|
b|----------0--------0----------------2p0--2-0----------------------------|
g|-------------------------------------------------------------------------|
d|-------2--------2--------2------2----------------------------------------|
a|----3--------3--------3------3-------------------------------------------|
e|-------------------------------------------------------------------------|