Youth Group - Forever Young Chords & Tabs

 

Forever Young Chords & Tabs

Youth Group Chords & Tabs

Version: 4 Type: Tab

Forever Young Tab

----------------------------------------------------------------------------
			     FOREVER YOUNG - Youth Group
----------------------------------------------------------------------------
Tabbed by:dcfc_rules


Tuning:Standard, Capo 4th fret

I saw the other tab up here but noticed that the intro was not tabbed
correctly, so i decided to tab it right.

[ Tab from: http://www.guitartabs.cc/tabs/y/youth_group/forever_young_tab_ver_4.html ]
e|-------------------------------------------------------------------|
B|----3----3---3----3----3---3----0----0---0----0----0---0-----------|
G|-------------------------------------------------------------------|
D|-------------------------------------------------------------------|
A|-------------------------------------------33---33---3-------------|
E|-33---33---3---33---33---3---00---00---0---------------------------|

e|-------------------------------------------------------------------|
B|----0----0---0----0----0---0----0----0---0---0---0-----------------|
G|-----------------------------------------------2---2p0-------------|
D|-00---00---0---22---22---2-----------------------------------------|
A|-----------------------------33---33---3---3-----------------------|
E|-------------------------------------------------------------------|