Youth Group - Forever Young Chords & Tabs

 

Forever Young Chords & Tabs

Youth Group Chords & Tabs

Version: 2 Type: Tab

Forever Young Tab

   
-------------------------------------------------------------------------------
			     Forever Young - Youth Group
-------------------------------------------------------------------------------
Tabbed by: Will Upcher
Email: wupcher@hotmail.com

Tuning: Standard

e|---------------------------------------------------------------------------|
B|------------7------------7-------7-------------7-----------7--------7------|
G|----4---4--------4---4-------4---------4---4-------4---4--------4----------|
D|---------------------------------------------------------------------------|
A|---------------------------------------------------------------------------|
E|---------------------------------------------------------------------------|
[ Tab from: http://www.guitartabs.cc/tabs/y/youth_group/forever_young_tab_ver_2.html ]
e|---------------------------------------------------------------------------|
B|------------4-----------4-------4---------------4-----------4--------4-----|
G|----1---1-------1---1-------1----------------------------------------------|
D|----------------------------------------2---2-------2---2--------2---------|
A|---------------------------------------------------------------------------|
E|---------------------------------------------------------------------------|

e|---------------------------------------------------------------------------|
B|------------4-----------4-------4---------------4-----------4---------4----|
G|----------------------------------------1---1-------1---1--------1---------|
D|----4---4-------4---4-------4----------------------------------------------|
A|---------------------------------------------------------------------------|
E|---------------------------------------------------------------------------|

e|---------------------------------------------------------------------------|
B|------------4-----------4-------4------------2p0---2---0-------------------|
G|---------------------------------------------------------------------------|
D|----2---2-------2---2-------2-------2---2----------------------------------|
A|---------------------------------------------------------------------------|
E|---------------------------------------------------------------------------|

Repeat
Let's dance in style, let's dance for a while    etc...



| /  slide up
| \  slide down
| h  hammer-on
| p  pull-off
| ~  vibrato
| +  harmonic
| x  Mute note
===============================================================================