Youth Group - Forever Young Chords & Tabs

 

Forever Young Chords & Tabs

Youth Group Chords & Tabs

Version: 1 Type: Tab 3 ratings
1 star 2 stars 3 stars 4 stars 5 stars
comments

Forever Young Tab

   
Song: Forever Young
Artist: Youth Group
Tabbed by Leo Chan (21-5-06)

:
Intro:
e|---------------------|
B|-----7-----7---7-----|
G|---------------------|
D|-9-9---9-9---9-------|
A|---------------------|
E|---------------------|  X2   

e|----------------------------------------------------------------|
B|-----4-----4----4-------4------4-----4--------4------4------4---|
G|----------------------------------------------------------------|
D|-6-6---6-6----6----2-2-----2-2----2------4-4-----4-4-----4------|
A|----------------------------------------------------------------|
E|----------------------------------------------------------------|
[ Tab from: http://www.guitartabs.cc/tabs/y/youth_group/forever_young_tab.html ]
e|-----------------------------------------------------|
B|-----4------4-------4-------4----4--------2----------|
G|--------------------------------------------4-3---4--|
D|-6-6----6-6-----2-2-----2-2----2-----2-2--------4----|
A|-----------------------------------------------------|
E|-----------------------------------------------------| 

B        

                     G#m
               
                                         F#

                                        E
 


B                                 G#m

                                      F#



            E

B                                 G#m

                                F#

                                 E



B         F#         G#m           E

F#                         G#m                 

E





B F# G#m E 
F# G#m E



Comments