Youth Brigade - Sink With Kalifornjia Chords & Tabs

 

Sink With Kalifornjia Chords & Tabs

Youth Brigade Chords & Tabs

Version: 1 Type: Tab 0 ratings
1 star 2 stars 3 stars 4 stars 5 stars
comments

Sink With Kalifornjia Tab

BAND : YOUTH BRIGADE
SONG : SINK WITH KALIFORNJIA
TABBED BY : QUINCY SLOAN

ANOTHER YOUTH BRIGADE CLASSIC. i WAS SURPRISED TO SEE NOONE HAD A TAB FOR THIS
AND SO I WORKED IT OUT. HERE IT IS
[ Tab from: http://www.guitartabs.cc/tabs/y/youth_brigade/sink_with_kalifornjia_tab.html ]
INTRO - basically just pick through the GDEC powerchords like this
E:-------------------------------------------------------
B:-------------------------------------------------------
G:-----------------------7---------------------5---------
D:-------------5-------7---7----------2------5---5-------
A:-----------5---5---5-------7------2---2--3-------3-----
E:-7---5---3-------3-----------0--0----------------------
MAIN RIFF/CHORUS
E:----------------------------------------------
B:----------------------------------------------
G:----------5-5-5-5-----------5-5-5-5-----------
D:-5-5-5-5--5-5-5-5--2-2-2-2--5-5-5-7-----------
A:-5-5-5-5--3-3-3-3--2-2-2-2--3-3-3-5-----------
E:-3-3-3-3-----------0-0-0-0--------------------

VERSE PART 1
E:---------------------------------------------------
B:---------------------------------------------------
G:-------------------7-7-7-7-7-7---------------------
D:-5-5-5-5-5-5-------7-7-7-7-7-7---------------------
A:-5-5-5-5-5-5-------5-5-5-5-5-5---------------------
E:-3-3-3-3-3-3---------------------------------------

VERSE PART 2
E:--------------------------------------------------------
B:--------------------------------------------------------
G:------------------5-5-5-5--5-7--5-7--5-7----------------
D:-2-2-2-2-2-2-2-2--5-5-5-5--5-7--5-7--5-7----------------
A:-2-2-2-2-2-2-2-2--3-3-3-3--3-5--3-5--3-5----------------
E:-0-0-0-0-0-0-0-0----------------------------------------
Comments