Youth Brigade - I Hate My Life Chords & Tabs

 

I Hate My Life Chords & Tabs

Youth Brigade Chords & Tabs

Version: 1 Type: Tab 0 ratings
1 star 2 stars 3 stars 4 stars 5 stars
comments

I Hate My Life Tab

Youth Brigade-I hate my life

Intro
e-------------------------------------|
b-------------------------------------|
g-------------------------------------|
d-2-----5------7---10-9--5--4---------|
a-0-----3------5---8--7--3--2---------|
e-------------------------------------|

Verse
e------------------------------------------|
b------------------------------------------|
g------------------------------------------|
d-22222222--55555555--77777777--10-9--5--4-|
a-00000000--33333333--55555555--8--7--3--2-|
e------------------------------------------|

Chorus
e---------------------------------------|
b---------------------------------------|
g---------------------------------------|
d-22222222--55555555--77777777--10-10-9-|
a-00000000--33333333--55555555--8--8--7-|
e---------------------------------------|

Verse
e------------------------------------------|
b------------------------------------------|
g------------------------------------------|
d-22222222--55555555--77777777--10-9--5--4-|
a-00000000--33333333--55555555--8--7--3--2-|
e------------------------------------------|
[ Tab from: http://www.guitartabs.cc/tabs/y/youth_brigade/i_hate_my_life_tab.html ]
Chorus
e---------------------------------------|
b---------------------------------------|
g---------------------------------------|
d-22222222--55555555--77777777--10-10-9-|
a-00000000--33333333--55555555--8--8--7-|
e---------------------------------------|

Intro
e-------------------------------------|
b-------------------------------------|
g-------------------------------------|
d-2-----5------7---10-9--5--4---------|
a-0-----3------5---8--7--3--2---------|
e-------------------------------------|

Verse
e------------------------------------------|
b------------------------------------------|
g------------------------------------------|
d-22222222--55555555--77777777--10-9--5--4-|
a-00000000--33333333--55555555--8--7--3--2-|
e------------------------------------------|

Chorus
e---------------------------------------|
b---------------------------------------|
g---------------------------------------|
d-22222222--55555555--77777777--10-10-9-|
a-00000000--33333333--55555555--8--8--7-|
e---------------------------------------|

(bridge)
e---------------------------------------|
b---------------------------------------|
g------------------55555----------------|
d-22222----33333---55555--55--77--------|
a-00000----33333---33333--55--55--------|
e----------11111----------33------------|
Comments