Youth Brigade - Believe In Something Chords & Tabs

 

Believe In Something Chords & Tabs

Youth Brigade Chords & Tabs

Version: 1 Type: Tab 0 ratings
1 star 2 stars 3 stars 4 stars 5 stars
comments

Believe In Something Tab

Band: Youth Brigade
Song: Believe In Something
Album: To Sell The Truth

Intro: Play 2x

E|--8------------------------8------------------|
B|----9------------------------9----------------|
G|------8-6--6-8-10-8-6-8--------8-6--6-8-10-8--|
D|----------------------------------------------|
A|----------------------------------------------|
E|----------------------------------------------|

Verse: Play 4x

E|----------------------------------------|
B|----------------------------------------|
G|------------6666666666666666--88888888--|
D|--66666666--6666666666666666--88888888--|
A|--66666666--4444444444444444--66666666--|
E|--44444444------------------------------|

Chorus: Play 4x

E|----------------------------------------|
B|----------------------------------------|
G|--------------------------------66--88--|
D|--33333333--66666666--88888888--66--88--|
A|--33333333--66666666--88888888--44--66--|
E|--11111111--44444444--66666666----------|

Verse: Play 4x

(I know a girl...)
E|----------------------------------------|
B|----------------------------------------|
G|------------6666666666666666--88888888--|
D|--66666666--6666666666666666--88888888--|
A|--66666666--4444444444444444--66666666--|
E|--44444444------------------------------|

Chorus: Play 4x

E|----------------------------------------|
B|----------------------------------------|
G|--------------------------------66--88--|
D|--33333333--66666666--88888888--66--88--|
A|--33333333--66666666--88888888--44--66--|
E|--11111111--44444444--66666666----------|

Verse: Play 3x
[ Tab from: http://www.guitartabs.cc/tabs/y/youth_brigade/believe_in_something_tab.html ]
(We have the luxury...)
E|--8------------------------8------------------|
B|----9------------------------9----------------|
G|------8-6--6-8-10-8-6-8--------8-6--6-8-10-8--|
D|----------------------------------------------|
A|----------------------------------------------|
E|----------------------------------------------|

(I know a girl...)
E|----------------------------------------|
B|----------------------------------------|
G|------------6666666666666666--88888888--|
D|--66666666--6666666666666666--88888888--|
A|--66666666--4444444444444444--66666666--|
E|--44444444------------------------------|

Chorus: Play 3x

E|----------------------------------------|
B|----------------------------------------|
G|--------------------------------66--88--|
D|--33333333--66666666--88888888--66--88--|
A|--33333333--66666666--88888888--44--66--|
E|--11111111--44444444--66666666----------|

E|--------------------------------|
B|--------------------------------|
G|--------------------------------|
D|--33333333--66666666--88888888--|
A|--33333333--66666666--88888888--|
E|--11111111--44444444--66666666--|

Bridge: Play 8x // In ska rhythm

(I want to believe...)
E|------------------|
B|--99--66--11--88--|
G|--88--66--11--88--|
D|--66--66--33--88--|
A|------------------|
E|------------------|

Ending: Play 14x

E|------------------------------------------|
B|------------------------------------------|
G|------------66666666--88888888--66666666--|
D|--66666666--66666666--88888888--66666666--|
A|--66666666--44444444--66666666--44444444--|
E|--44444444--------------------------------|
Comments