Youth - Multong Bakla Multo Sa Paningin Chords & Tabs

 

Multong Bakla Multo Sa Paningin Chords & Tabs

Youth Chords & Tabs

Version: 1 Type: Bass Tab 0 ratings
1 star 2 stars 3 stars 4 stars 5 stars
comments

Multong Bakla Multo Sa Paningin Bass Tab

#----------------------------------PLEASE NOTE---------------------------------#
#This file is the author's own work and represents their interpretation of the #
#song. You may only use this file for private study, scholarship, or research. #
#------------------------------------------------------------------------------##

                  MULTONG BAKLA (MULTO SA PANINGIN ) (Bassline)
                            As recorded by The Youth
                  (From the 1995 Album ALBUM NA WALANG PAMAGAT)

Words by Dodong Cruz
Music by Dodong Cruz, Robert Javier

 Intro
  Alternative Pinoy Rock Q=140
 4/4
  Gtr I
|-------------||------7-7-5-5-7-7-|-----------------|
|-------------||o-----------------|-----5-5-3-3-5-5-|
|-------------||o-5-5-------------|-----------------|
|-5-5-5-5-5-5-||------------------|-3-3-------------|


                   1.                  2.
|-----7-7-5-5-7-7-|------------------||-------------||
|-----------------|-----7-7-5-5-7-7-o||-------------||
|-5-5-------------|-----------------o||-------------||
|-----------------|-5-5--------------||-5-5-5-5-5-5-||


   1st Verse
                                                         1.,2.,3.
                                                                           4x
||------7-7-5-5-7-7-|-----------------|-----7-7-5-5-7-7-|------------------||
||o-----------------|-----5-5-3-3-5-5-|-----------------|-----7-7-5-5-7-7-o||
||o-5-5-------------|-----------------|-5-5-------------|-----------------o||
||------------------|-3-3-------------|-----------------|-5-5--------------||


                            Breakdown
  4.
                            2/4
|-------------|----------||-------|----------|
|-------------|----------||o------|----------|
|-------------|----------||o-2----|-(2)-0-3--|
|-5-5-5-5-5-5-|-5--------||-------|----------|


                                 1.
|--------|---------|------------|------|---------||
|--------|---------|------------|------|--------o||
|-(3)----|-(3)--2--|-(2)--(2)\--|-0----|-(0)----o||
|--------|---------|------------|------|---------||


  2.                       Q=155
 4/4
|--------------------------|--------||
|--------------------------|--------||
|-/12-12-12-12-12-12-12-12-|-12\----||
|--------------------------|--------||


   Interlude
    Q=140
||------7-7-5-5-7-7-|-----------------|
||o-----------------|-----5-5-3-3-5-5-|
||o-5-5-------------|-----------------|
||------------------|-3-3-------------|


                   1.                  2.
|-----7-7-5-5-7-7-|------------------||-------------||
|-----------------|-----7-7-5-5-7-7-o||-------------||
|-5-5-------------|-----------------o||-------------||
|-----------------|-5-5--------------||-5-5-5-5-5-5-||


   2nd Verse
                                                         1.,2.,3.
||------7-7-5-5-7-7-|-----------------|-----7-7-5-5-7-7-|------------------||
||o-----------------|-----5-5-3-3-5-5-|-----------------|-----7-7-5-5-7-7-o||
||o-5-5-------------|-----------------|-5-5-------------|-----------------o||
||------------------|-3-3-------------|-----------------|-5-5--------------||


                            Breakdown
  4.
                            2/4
|-------------|----------||-------|----------|
|-------------|----------||o------|----------|
|-------------|----------||o-2----|-(2)-0-3--|
|-5-5-5-5-5-5-|-5--------||-------|----------|


                                 1.
|--------|---------|------------|------|---------||
|--------|---------|------------|------|--------o||
|-(3)----|-(3)--2--|-(2)--(2)\--|-0----|-(0)----o||
|--------|---------|------------|------|---------||


  2.                       Q=155
 4/4
|--------------------------|--------||
|--------------------------|--------||
|-/12-12-12-12-12-12-12-12-|-12\----||
|--------------------------|--------||


   Interlude
    Q=140
||------7-7-5-5-7-7-|-----------------|
||o-----------------|-----5-5-3-3-5-5-|
||o-5-5-------------|-----------------|
||------------------|-3-3-------------|


                   1.                  2.
|-----7-7-5-5-7-7-|------------------||-------------||
|-----------------|-----------------o||-------------||
|-5-5-------------|-----4-4-5-5-7-7-o||-------------||
|-----------------|-5-5--------------||-5-5-5-5-5-5-||

[ Tab from: http://www.guitartabs.cc/tabs/y/youth/multong_bakla_multo_sa_paningin_btab.html ]
   3rd Verse
                                                         1.,2.,3.
                                                                           4x
||------7-7-5-5-7-7-|-----------------|-----7-7-5-5-7-7-|------------------||
||o-----------------|-----5-5-3-3-5-5-|-----------------|-----------------o||
||o-5-5-------------|-----------------|-5-5-------------|---4-7-----------o||
||------------------|-3-3-------------|-----------------|-5-----5-5-5-5-5--||


                            Breakdown
  4.
                            2/4
|-------------|----------||-------|----------|
|-------------|----------||o------|----------|
|-------------|----------||o-2----|-(2)-0-3--|
|-5-5-5-5-5-5-|-5--------||-------|----------|


                                 1.
|--------|---------|------------|------|---------||
|--------|---------|------------|------|--------o||
|-(3)----|-(3)--2--|-(2)--(2)\--|-0----|-(0)----o||
|--------|---------|------------|------|---------||


  2.                       Q=155
 4/4
|--------------------------|--------||
|--------------------------|--------||
|-/12-12-12-12-12-12-12-12-|-12\----||
|--------------------------|--------||


 Bass Solo
  Q=145
|----------|-----------|----------|---------------|
|----------|-----------|----------|---------------|
|-5--------|-----------|-5--------|----------12\--|
|----------|-1h3-------|----------|-3h5-----------|


|------------------|-------------------------|
|------------------|-------------------------|
|-5-5-5-5-5-5-5-5/-|-10-10-10-10-10-10-10-10-|
|------------------|-------------------------|


|------------------|--------------------------||
|------------------|--------------------------||
|-5-5-5-5-5-5-5-5/-|-12-12-12-12-12-12-12-12--||
|------------------|--------------------------||


   Bridge
||-------------------|--------------------------|
||o------------------|--------------------------|
||o-5-5-5-5-5-5-5-5/-|-10-10-10-10-10-10-10-10\-|
||-------------------|--------------------------|


|-----------------|------------------||
|-----------------|-----------------o||
|-5-5-5-5-5-5-5-5-|-----------------o||
|-----------------|-5-5-5-5-5-5-5-5--||


 Coda
  Faster Q=155
|-------------|-------------|-------------|------------|
|-------------|-------------|-------------|------------|
|-5--5--5--5--|-------------|-5--5--5--5--|-7--7--7--7-|
|-------------|-3--3--3--3--|-------------|------------|


|---------------|-------------|-------------|------------|
|---------------|-------------|-------------|------------|
|-10\--5--5--5--|-------------|-5--5--5--5--|-0--0--0--0-|
|---------------|-3--3--3--3--|-------------|------------|


||--------------|-------------|-------------|--------------||
||o-------------|-------------|-------------|-------------o||
||o-5--5--5--5--|-------------|-5--5--5--5--|-0--0--0--0--o||
||--------------|-3--3--3--3--|-------------|--------------||


|---------------------------------|---------------------------------|
|---------------------------------|---------------------------------|
|-5-5-5-5-5-5-5-5-5-5-5-5-5-5-5-5-|-5-5-5-5-5-5-5-5-5-5-5-5-5-5-5-5-|
|---------------------------------|---------------------------------|


|---------------------------------|-------------|
|---------------------------------|-------------|
|-5-5-5-5-5-5-5-5-5-5-5-5-5-5-5-5-|-5----(5)----|
|---------------------------------|-------------|


|--------------*|
|--------------*|
|-5----(5)\----*|
|--------------*|


Tablature Legend
----------------
 h   - hammer-on
 p   - pull-off
 b   - bend
 pb  - pre-bend
 r   - bend release (if no number after the r, then release immediately)
 /\  - slide into or out of (from/to "nowhere")
 s   - legato slide
 S   - shift slide
  - natural harmonic
[n]  - artificial harmonic
n(n) - tapped harmonic
 ~   - vibrato
 tr  - trill
 T   - tap
 TP  - trem. picking
 PM  - palm muting
\n/  - tremolo bar dip; n = amount to dip
 \n  - tremolo bar down
 n/  - tremolo bar up
/n\  - tremolo bar inverted dip
 =   - hold bend; also acts as connecting device for hammers/pulls
   - volume swell (louder/softer)
 x   - on rhythm slash represents muted slash
 o   - on rhythm slash represents single note slash

Misc Legend
-----------
 |  - bar
||  - double bar
||o - repeat start
o|| - repeat end
*|  - double bar (ending)
 :  - bar (freetime)
 $  - Segno
 &  - Coda
Tempo markers -  = BPM(8/16=s8/s16), where s8 = swing 8ths, s16 = swing 16ths


***************************************************************************************
* Generated using Power Tab Editor by Brad Larsen - http://powertab.guitarnetwork.org *
***************************************************************************************
Comments