Young Neil - When You Dance Chords & Tabs

 

When You Dance Chords & Tabs

Young Neil Chords & Tabs

Version: 1 Type: Chords 0 ratings
1 star 2 stars 3 stars 4 stars 5 stars
comments

When You Dance Chords

   
#----------------------------------PLEASE NOTE---------------------------------#
#This file is the author's own work and represents their interpretation of the #
#song. You may only use this file for private study, scholarship, or research. #
#------------------------------------------------------------------------------##
From: mtaylor@data.basix.com
Subject: TAB: When You Dance, I Can Really Love

Song: When You Dance, I Can Really Love
Artist: Neil Young

Chord chart: rather than right out all the tab here are the chords used
in the song.

  Dm(sus4)  D  C1 C2 G  D5  Bb  Dm7  F  Dm(sus 4)/C
E ---3------2--0--3--3--5---1---1----1--3-----------
B ---3------3--1--5--3--3---3---1----1--3-----------
G ---2------2--0--5--4--2---3---2----2--2-----------
D ---0------0--2--5--5--0---3---0----3--0-----------
A -------------3--3--5------1--------3--3-----------
E ----------------3---------------1--------------

     Gm7/F      Fmaj7
E ----3----------0--------
B ----3----------1--------
G ----3----------2--------
D ----3----------3--------
A ---------------------------
E ---------------------------

intro:
[ Tab from: http://www.guitartabs.cc/tabs/y/young_neil/when_you_dance_crd.html ]
   Dm(sus4)   D         C  G   D with bluesy licks

E  --3--3--3--2--0------3--3---5------
B  --3--3--3--3-----3---5--3---7------
G  --2--2--2--2-----2---5--4---7------
D  --0--0--0--0-----0---5--5---7------
A  ---------------------3--5---5------
E  ------------------------3----------

    Dm(sus 4) D5    D  C  G   G  Bb

E --3-3-3-----5--3--2--3--3---3--1-----
B --3-3-3-----3--3--3--5--3---3--3-----
G --2-2-2-----2--2--2--5--4---4--3-----
D --0-0-0-----0--0--0--5--5---5--3-----
A ---------------------3--5---5--1-----
E ------------------------3---3--------


repeat F D F G and fade out

melody line played by lead on fade out

E -------------------------------------------------
B --3--4--5--5--3----3--4--5--8--5--3--1--1--3--3--
G -------------------------------------------------
D -------------------------------------------------
A -------------------------------------------------
E -------------------------------------------------

If anyone has ideas about the Bb for the line _Let me come over_
I'd like to know.  I've never felt quite satisfied with it.

Let all the children boogie - David Bowie

MTaylor@data.basix.com



 Bookmark this page right now! (Ctrl+D)
Comments