Young Neil - Walk On Chords & Tabs

 

Walk On Chords & Tabs

Young Neil Chords & Tabs

Version: 2 Type: Tab 0 ratings
1 star 2 stars 3 stars 4 stars 5 stars
comments

Walk On Tab

Song: Walk On
Album: On the Beach
Artist: Neil Young
Tabbed by: John Passalacqua
Screen Name: crappy_acoustic
Email: followmearound2003@yahoo.com

This was basically tabbed already, but it left out that cool riff, so I redid it.

Intro riff
e|--3-3-5----7-7-7-5----|
b|--3-3-3-5--7-7-5--8---|
g|--4-4---5--7-7-5---5--|
d|--5-5---5--7-7-5------|
a|--5-5---3--5-5-5------|
e|----------------------|

Verse
e|--3-(5or3)--|
b|--3--5------|
g|--4--5------|
d|--5--5------|
a|--5--3------|
e|------------| 
[ Tab from: http://www.guitartabs.cc/tabs/y/young_neil/walk_on_tab_ver_2.html ]
Bridge
e|--3-2--2----3-2--2----3-2--2------2--2-0--|
b|--4-3--3-0--4-3--3-0--4-3--3-0--0-3--3-1--|
g|--5-4--4-1--5-4--4-1--5-4--4-1--1-2--2-0--|
d|--5-4--4-2--5-4--4-2--5-4--4-2--2-0--0-2--|
a|---------2---------2---------2--2------3--|
e|---------0---------0---------0--0---------|

I could swear that someone is playing this
behind the bridge chords, but I'm not sure.
e|-------------------------------------------------------------|
b|--12--11---11--9----12--11--12--14--12--11--11--9----5---7---|
g|--14b-13b--13b-11b--14b-13b-14b-16b-14b-13b-13b-11b--7b--9b--|
d|-------------------------------------------------------------|
a|-------------------------------------------------------------|
e|-------------------------------------------------------------|

Riff
e|-------------------------|
b|-------------------------|
g|-------------------------|
d|----------------x-5-5-7--|
a|--------x-3-5\7----------|
e|--3-5\7------------------|
Comments