Young Neil - Walk On Chords & Tabs

 

Walk On Chords & Tabs

Young Neil Chords & Tabs

Version: 1 Type: Tab 0 ratings
1 star 2 stars 3 stars 4 stars 5 stars
comments

Walk On Tab

I got this from watching a live video of Neil so i dont kno if its 
different live. 

Intro:
e--3-3-5-5---7-7-7-5-----------------------------------------------
b--3-3-3-5---7-7-5---8---------------------------------------------
g--4-4-4-5---7-7-5-----5-------------------------------------------
d--5-5-5-5---7-7-5-------------------------------------------------
a--------3---5-5-5-------------------------------------------------
e------------------------------------------------------------------
[ Tab from: http://www.guitartabs.cc/tabs/y/young_neil/walk_on_tab.html ]
Verse:
e--3-3-3--5-5-5-----------------------------------------------------
b--3-3-3--5-5-5-----------------------------------------------------
g--4-4-4--5-5-5-----------------------------------------------------
d--5-5-5--5-5-5-----------------------------------------------------
a---------3-3-3-----------------------------------------------------
e-------------------------------------------------------------------

Chorus:
e--3-2------0-----3-2-------0-----3-2------0----2------0------------
b--4-3------0-----4-3-------0-----4-3------0----3------1------------
g--5-4------1-----5-4-------1-----5-4------1----2------0------------
d--5-4------2-----5-4-------2-----5-4------2----0------2------------
a-----------2---------------2--------------2-----------3------------
e-----------0---------------0--------------0------------------------

That's basically it. You play the intro, i cant how many times you 
repeat, then the verse along with the words, then the chorus once 
and then the intro along with the "walk on" part. There's one more 
part after all of this i used to know. It's just a lead thing
you don't have to play, but i'll tray and post it soon.


Does anyone know Marooned by Pink Floyd?
Comments