Young Neil - Unknown Legend Chords & Tabs

 

Unknown Legend Chords & Tabs

Young Neil Chords & Tabs

Version: 1 Type: Chords 0 ratings
1 star 2 stars 3 stars 4 stars 5 stars
comments

Unknown Legend Chords

   
***************************************************************************
Unknown Legend 
 by Neil Young
***************************************************************************

Transcribed by Soenen Martijn (martijnsoenen@hotmail.com) 20:01 05/05/2001

CHORDS used in this song:

        EADGBE

C       x32010
G       320003
                                         
NOTES: The tab is correct but you have to hit the chords G and C more than once.

INTRO: 
    G         G         G         C         G

e |---------3---------3---------3---------0---------3-------|
B |---------0---------0---------0---------1---------0-------|
G |---------0---------0---------0---------0---------0-------|
D |------0--0------0--0------0--0---------2------0--0-------|
A |--2-3----2--3-2----2--2-3----2--3-2----3---------2-------|
E |---------3---------3---------3------0-----0-3----3-------|
                                  
                                                        
INTRO: 
    G         G         G         C         G
[ Tab from: http://www.guitartabs.cc/tabs/y/young_neil/unknown_legend_crd.html ]
e |---------3---------3---------3---------0---------3-------|
B |---------0---------0---------0---------1---------0-------|
G |---------0---------0---------0---------0---------0-------|
D |------0--0------0--0------0--0---------2------0--0-------|
A |--2-3----2--3-2----2--2-3----2--3-2----3---------2-------|
E |---------3---------3---------3------0-----0-3----3-------|
                                                                   
VERSES

CHORUS: play it 2 times

OUTRO: 
    G         G         G         C         

e |---------3---------3---------3---------0----------------|
B |---------0---------0---------0---------1----------------|
G |---------0---------0---------0---------0----------------|
D |------0--0------0--0------0--0---------2------0---------|
A |--2-3----2--3-2----2--2-3----2--3-2----3----------------|
E |---------3---------3---------3------0-----0-3-----------|


***************************************************************************
        More Tabs At:       http://members.fortunecity.com/dmedm/gitaar/guitar.htm
***************************************************************************
Comments