Young Neil - Tell Me Why Chords & Tabs

 

Tell Me Why Chords & Tabs

Young Neil Chords & Tabs

Version: 1 Type: Tab 0 ratings
1 star 2 stars 3 stars 4 stars 5 stars
comments

Tell Me Why Tab

   
#----------------------------------PLEASE NOTE---------------------------------#
#This file is the author's own work and represents their interpretation of the #
#song. You may only use this file for private study, scholarship, or research. #
#------------------------------------------------------------------------------#

Date: Sunday, 12.09.2004
Tabbed by Peter Tuyp(peter.tuyp@wxs.nl)

Subject: Neil Young - Tell me why

Drop guitar tuning one tone

> = down stroke
< = up stroke (or pick)
t = thumb

Verse 1:
  C                               D
  t t t t > t   > t < > < t < t < t > t < > t > t < >  
|---------0-----0---0-0-0---0---0---2---2-2---2---2-2-|
|---------1-----1---1-1-1---1---1---3---3-3---3---3-3-|
|---------0-----0-4-------2---0-----2-----2---2-----2-|
|---------2-0h2-2-----------------0---------0---------|
|---0-2-3-3---------------------------0---------0-----|
|-3---------------------------------------------------|
        

  Am7                   G
  t > t   > t > t   > < t > t   > < t > t  t
|---0-----0---0-----0-0---3-----3-3---3------|
|---1-----1---1-----1-1---0-----0-0---0------|
|---0-----0---0-----0-0---0-----0-0---0------|
|---2-0h2-2---2-0h2-2-2---0-----0-0---0----0-|
|-0---------0-------------2-0h2-2-2---2-0h2--|
|-----------------------3-3-----3-3-3-3------|
  

  C                         D
|---0-----0---0-0-0---0---0---2---2-2---2---2-2-|
|---1-----1---1-1-1---1---1---3---3-3---3---3-3-|
|---0-----0-4-------2---0-----2-----2---2-----2-|
|---2-0h2-2-----------------0---------0---------|
|-3-3---------------------------0---------0-----|
|-----------------------------------------------|
     

  Am7                   G
|---0-----0---0-----0-0---3-----3-3---3-------|
|---1-----1---1-----1-1---0-----0-0---0-----0-|
|---0-----0---0-----0-0---0-----0-0---0-----0-|
|---2-0h2-2---2-0h2-2-2---0-----0-0---0-----0-|
|-0---------0-------------2-0h2-2-2---2-0h2---|
|-----------------------3-3-----3-3-3-3-------|


Chorus:
  D             Am7   C G 
  t > t > < t > t   > > > > > > < > < t    
|---2---2-2---2-----0-0-3-3-3-3-3-3-3---|
|---3---3-3---3-----1-1-0-3-0-1-1-1-0---|
|---2---2-2---2-----0-0-0-0-0-0-0-0-0---|
|-0-------------0h2-2-2-0-0-0-0-0-0-0---|
|-----0-----0---------3-2-2-2-2-2-2-2-2-|
|-------------------------------------3-|
  Tell me why ...

  D             Am7   C     G
  t > t > < t > t   > > > > > t > t
|---2---2-2---2-----0-0-0-0-3---3---|
|---3---3-3---3-----1-1-1-1-0---0---|
|---2---2-2---2-----0-0-0-0-0---0---|
|-0-------------0h2-2-2-2-2-0---0---|
|-----0-----0---------3-3-3-2-2-2-2-|
|-----------------------------3---3-|
  

  Gmaj7           C               D       C       Bm      Em
  > > < > > < > < > > < > > < > < > > < > > > < > > > < > t > < t > < t > <
|-2-2-2-2-2-2-2-2-0-0-0-0-0-0-0-0-2-2-2-2-0-0-0-0-2-2-2-2---0-0---0-0---0-0-|
|-0-0-0-0-0-0-0-0-1-1-1-1-1-1-1-1-3-3-3-3-1-1-1-1-3-3-3-3---0-0---0-0---0-0-|
|-0-0-0-0-0-0-0-0-0-0-0-0-0-0-0-0-2-2-2-2-0-0-0-0-4-4-4-4---0-0---0-0---0-0-|
|-0-0-0-0-0-0-0-0-2-2-2-2-2-2-2-2-0-0-0-0-2-2-2-2-4-4-4-4-2-2-2-2-2-2-2-2-2-|
|-----------------3-3-3-3-3-3-3-3---------3-3-3-3-2-2-2-2-2-2-2-2-2-2-2-2-2-|
|-3-3-3-3-3-3-3-3-----------------------------------------0-0-0-0-0-0-0-0-0-|
  
          
                        
                             
                                       
                                                   

Solo 1:
          C                       D
|---------0-----0---0-0-0---0---0---2---2---2-------|
|---------1-----1---1-1-1---1---1---3---3---3-------|
|---------0-----0-4-------2---0-----2---2---2-------|
|---------2-0h2-2-----------------0-------0---------|
|---0-2-3-3---------------------------0-------3-2-0-|
|---------------------------------------------------|

  Am7               G
|-0-----0---0---------3-------------3-|
|-1-----1---1---------0-------------0-|
|-0-----0---0---------0---------0---0-|
|-2-0h2-2-0-2-----0---0-----0h2-----0-|
|-------------0h2-----2-0h2---------2-|
|-------------------3-3-----------3-3-|

Verse 2:
  C                               D   
|---------0-----0---0-0-0---0---0---2---2-2---2---2-2-|
|---------1-----1---1-1-1---1---1---3---3-3---3---3-3-|
|---------0-----0-4-------2---0-----2-----2---2-----2-|
|---------2-0h2-2-----------------0---------0---------|
|---0-2-3-3---------------------------0---------0-----|
|-3---------------------------------------------------|
      

  Am7                   G
|---0-----0---0-----0-0---3-----3-3---3------|
|---1-----1---1-----1-1---0-----0-0---0------|
|---0-----0---0-----0-0---0-----0-0---0------|
|---2-0h2-2---2-0h2-2-2---0-----0-0---0----0-|
|-0---------0-------------2-0h2-2-2---2-0h2--|
|-----------------------3-3-----3-3-3-3------|
  
[ Tab from: http://www.guitartabs.cc/tabs/y/young_neil/tell_me_why_tab.html ]
  C                         D
|---0-----0---0-0-0---0---0---2---2-2---2---2-2-|
|---1-----1---1-1-1---1---1---3---3-3---3---3-3-|
|---0-----0-4-------2---0-----2-----2---2-----2-|
|---2-0h2-2-----------------0---------0---------|
|-3-3---------------------------0---------0-----|
|-----------------------------------------------|
    

  Am7                   G
|---0-----0---0-----0-0---3-----3-3---3-------|
|---1-----1---1-----1-1---0-----0-0---0-----0-|
|---0-----0---0-----0-0---0-----0-0---0-----0-|
|---2-0h2-2---2-0h2-2-2---0-----0-0---0-----0-|
|-0---------0-------------2-0h2-2-2---2-0h2---|
|-----------------------3-3-----3-3-3-3-------|
  

Chorus:
  D             Am7   C G     
|---2---2-2---2-----0-0-3-3-3-3-3-3-3---|
|---3---3-3---3-----1-1-0-3-0-1-1-1-0---|
|---2---2-2---2-----0-0-0-0-0-0-0-0-0---|
|-0-------------0h2-2-2-0-0-0-0-0-0-0---|
|-----0-----0---------3-2-2-2-2-2-2-2-2-|
|-------------------------------------3-|
  Tell me why ...

  D             Am7   C     G
|---2---2-2---2-----0-0-0-0-3---3---|
|---3---3-3---3-----1-1-1-1-0---0---|
|---2---2-2---2-----0-0-0-0-0---0---|
|-0-------------0h2-2-2-2-2-0---0---|
|-----0-----0---------3-3-3-2-2-2-2-|
|-----------------------------3---3-|
  Tell me why ...

  Gmaj7           C               D       C       Bm      Em
|-2-2-2-2-2-2-2-2-0-0-0-0-0-0-0-0-2-2-2-2-0-0-0-0-2-2-2-2---0-0---0-0---0-0-|
|-0-0-0-0-0-0-0-0-1-1-1-1-1-1-1-1-3-3-3-3-1-1-1-1-3-3-3-3---0-0---0-0---0-0-|
|-0-0-0-0-0-0-0-0-0-0-0-0-0-0-0-0-2-2-2-2-0-0-0-0-4-4-4-4---0-0---0-0---0-0-|
|-0-0-0-0-0-0-0-0-2-2-2-2-2-2-2-2-0-0-0-0-2-2-2-2-4-4-4-4-2-2-2-2-2-2-2-2-2-|
|-----------------3-3-3-3-3-3-3-3---------3-3-3-3-2-2-2-2-2-2-2-2-2-2-2-2-2-|
|-3-3-3-3-3-3-3-3-----------------------------------------0-0-0-0-0-0-0-0-0-|
  
     
             
                   
                                 
                                          

Solo 2:
          C                       D
|---------0-----0---0-0-0---0---0---2---2---2-------|
|---------1-----1---1-1-1---1---1---3---3---3-------|
|---------0-----0-4-------2---0-----2---2---2-------|
|---------2-0h2-2-----------------0-------0---------|
|---0-2-3-3---------------------------0-------3-2-0-|
|---------------------------------------------------|

  Am7               G
|-0-----0---0---------3-------------3-|
|-1-----1---1---------0-------------0-|
|-0-----0---0---------0---------0---0-|
|-2-0h2-2-0-2-----0---0-----0h2-----0-|
|-------------0h2-----2-0h2---------2-|
|-------------------3-3-----------3-3-|

        C                       D     
|-------0-----0---0-0-0---0---0---0h2---2-3-2-0-----|
|-------1-----1---1-1-1---1---1---3-----3-3-3-3-3---|
|-------0-----0-4-------2---0-----2-----2-2-2-2-2---|
|-------2-0h2-2-----------------0---------0---------|
|---2h3-3-----------------------------0-----------0-|
|---------------------------------------------------|

  Am7               G          
|-0-----0---0-----0---3-------------3-|
|-1-----1---1-----1---0-------------0-|
|-0-----0---0-----0---0---------0---0-|
|-2-0h2-2---2-0h2-2---0-----0h2-----0-|
|---------0-----------2-0h2---------2-|
|-------------------3-3-----------3-3-|

Chorus:
  D             Am7   C G     
|---2---2-2---2-----0-0-3-3-3-3-3-3-3---|
|---3---3-3---3-----1-1-0-3-0-1-1-1-0---|
|---2---2-2---2-----0-0-0-0-0-0-0-0-0---|
|-0-------------0h2-2-2-0-0-0-0-0-0-0---|
|-----0-----0---------3-2-2-2-2-2-2-2-2-|
|-------------------------------------3-|
  Tell me why

  D             Am7   C     G
|---2---2-2---2-----0-0-0-0-3---3---|
|---3---3-3---3-----1-1-1-1-0---0---|
|---2---2-2---2-----0-0-0-0-0---0---|
|-0-------------0h2-2-2-2-2-0---0---|
|-----0-----0---------3-3-3-2-2-2-2-|
|-----------------------------3---3-|
  Tell me why

  Gmaj7           C               D       C       Bm      Em
|-2-2-2-2-2-2-2-2-0-0-0-0-0-0-0-0-2-2-2-2-0-0-0-0-2-2-2-2---0-0---0-0---0-0-|
|-0-0-0-0-0-0-0-0-1-1-1-1-1-1-1-1-3-3-3-3-1-1-1-1-3-3-3-3---0-0---0-0---0-0-|
|-0-0-0-0-0-0-0-0-0-0-0-0-0-0-0-0-2-2-2-2-0-0-0-0-4-4-4-4---0-0---0-0---0-0-|
|-0-0-0-0-0-0-0-0-2-2-2-2-2-2-2-2-0-0-0-0-2-2-2-2-4-4-4-4-2-2-2-2-2-2-2-2-2-|
|-----------------3-3-3-3-3-3-3-3---------3-3-3-3-2-2-2-2-2-2-2-2-2-2-2-2-2-|
|-3-3-3-3-3-3-3-3-----------------------------------------0-0-0-0-0-0-0-0-0-|
  
                 
                        
                       
                                   
                                     

Outro:
          C                       D
|---------0-----0---0-0-0---0---0---2---2---2-------|
|---------1-----1---1-1-1---1---1---3---3---3-------|
|---------0-----0-4-------2---0-----2---2---2-------|
|---------2-0h2-2-----------------0-------0---------|
|---0-2-3-3---------------------------0-------3-2-0-|
|---------------------------------------------------|

  Am7               G
|-0-----0---0-------------------------3-|
|-1-----1---1-------------------------0-|
|-0-----0---0---------------------0---0-|
|-2-0h2-2-0-2-----0-------0h2-2h4-----0-|
|-------------0h2-----0h2-------------2-|
|-------------------3---------------3-3-|
Comments