Young Neil - Silver And Gold Chords & Tabs

 

Silver And Gold Chords & Tabs

Young Neil Chords & Tabs

Version: 1 Type: Tab 0 ratings
1 star 2 stars 3 stars 4 stars 5 stars
comments

Silver And Gold Tab

#----------------------------------PLEASE NOTE---------------------------------#
#This file is the author's own work and represents their interpretation of the #
#song. You may only use this file for private study, scholarship, or research. #
#------------------------------------------------------------------------------##

Neil Young - "Silver & Gold"
Tabbed by Scott Lapatine

Dropped D Tuning (low to high DADGBe)

Intro:
e -0h2----2h3-----0h2----0------------
B -3------3-------3------3------------
G -2------2-------2------2------------
D --------0-------0------0------------
A ------------------------------------
D -0----------------------------------
 
Verse:
e ---2---2---2---2---0---0---0---0----
B ---3---3---3---3---2---2---2---2----
G ---2---2---2---2---2---2---2---2----
D -0-------0-------2-------2----------
A -----0-------0-------0-------0------
D ------------------------------------
 
  Working hard ...
 


e ---3---3---3---3------------------
B ---3---3---3---3------------------
G -0-------0-------0-------2-2-2-2--
D -----0-------0-----4-2-0h4-2-0-2--
A ----------------------------------
D ----------------------------------
 
      never notice ...

[ Tab from: http://www.guitartabs.cc/tabs/y/young_neil/silver_and_gold_tab.html ]
Pre-Chorus
e -0h2-------0-----0h2-------0------
B -3---------3-----3---------3------
G -2---------0-----2---------0------
D -0---------0-----0---------0------
A -------0h2-------------0h2--------
D -------0---------------0----------
 
  i don't care ...



e -0h2-------0-----0h2-------0------
B -3---------3-----3---------3------
G -2---------0-----2---------0------
D -0---------0-----0---------0------
A -------0h2-------------0h2--------
D -------0---------------0----------
 
  rain keeps ...



e -2------3--------5------7---------
B -3------5--------7------8---------
G -2------4--------6------7---------
D -0------0--------0------0---------
A -0------0--------0------0---------
D ----------------------------------
 
  our kind of ...



e ----------------------------------
B -2--------------------------------
G -2--------------------------------
D -0h2------------------------------
A -0--------------------------------
D ----------------------------------
 
  old ...


Chorus:
e -0h2----2h3-----0h2----0------------
B -3------3-------3------3------------
G -2------2-------2------2------------
D --------0-------0------0------------
A ------------------------------------
D -0----------------------------------

  silver and gold ...
Comments