Young Neil - Needle And The Damage Done Chords & Tabs

 

Needle And The Damage Done Chords & Tabs

Young Neil Chords & Tabs

Version: 5 Type: Tab 1 rating
1 star 2 stars 3 stars 4 stars 5 stars
comments

Needle And The Damage Done Tab

   
Neil Young: The Needle And The Damage Done 
Tabber: Unknown

         EADGBe
D        XX0232
Dsus2/C  X3X230
Dsus2/B  X2X230
Dsus2/Bb X1X230
C        X32010
C7       X32310 
Esus4    022200
E        022100
F        XX3211

Intro: 
  D                 Dsus2/C           Dsus2/B
e|---2---0---------|-------0---------|-------0---------|
B|---3-------3---3-|---3-------3---3-|---3-------3---3-|
G|---2-------------|-----2-------2---|-----2-------2---|
D|-0---0---0---0---|-----------------|-----------------|
A|-----------------|-3-------3-------|-2-------2-------|
E|-----------------|-----------------|-----------------|

 Dsus2/B           C                 C7
e|-------0---------|---0---0---0---0-|---0---0---0---0-|
B|---3-------3---3-|---1---1---1---1-|---1---1---1---1-|
G|-----2-------2---|---------0--0h2--|-3---2---0-------|
D|-----------------|----0h2----------|-------------3---|
A|-1-------1-------|-3---------------|-----------------|
E|-----------------|-----------------|-----------------|

  Esus4             Dsus2/C                               
e|---0---0---0---0-|---0---0---0-----|
B|---0---0---0---0-|---0---0---0-----|
G|-2---------------|-1---------------|
D|-----2-----------|-----2-----------|
A|---------2-------|---------2---0---|
E|-------------0---|-----------------|

1st Verse:
  D                 Dsus2/C           Dsus2/B
e|---2---0---------|-------0---------|-------0---------|
B|---3-------3---3-|---3-------3---3-|---3-------3---3-|
G|---2---------2---|-----2-------2---|-----2-------2---|
D|-0---0---0-------|-----------------|-----------------|
A|-----------------|-3-------3-------|-2-------2-------|
E|-----------------|-----------------|-----------------|
 
[ Tab from: http://www.guitartabs.cc/tabs/y/young_neil/needle_and_the_damage_done_tab_ver_5.html ]
  Dsus2/B           C                 F
e|-------0---------|---0---0---0---0-|---1---1---1---1-|
B|---3-------3---3-|---1---1---1---1-|---1---1---1---1-|
G|-----2-------2---|-----0-------0---|-----2-------2---|
D|-----------------|-----------------|-3-------3-------|
A|-1-------1-------|-3-------3-------|-----------------|
E|-----------------|-----------------|-----------------|
  

  Esus4             E                 D
e|---0---0---0---0-|---0---0---0---0-|---2---0---------|
B|---0---0---0---0-|---0---0---0---0-|---3---3---3---3-|
G|-2---------------|-1---------------|-----------2---2-|
D|-----2-------2---|--------2/4--2---|-0---0---0---0---|
A|---------2-------|----0h2----------|-----------------|
E|-----------------|-----------------|-----------------


  Dsus2/C           Dsus2/B           Dsus2/Bb
e|-------0---------|-------0---------|-------0---------|
B|---3---3---3---3-|---3---3---3---3-|---3---3---3---3-|
G|---2-------2---2-|---2-------2---2-|---2-------2---2-|
D|-----------------|-----------------|-----------------|
A|-3---3---3---3---|-2---2---2---2---|-1---1---1---1---|
E|-----------------|-----------------|-----------------|
  

  C                 F                 Esus4
e|---0---0---0---0-|---1---1---1---1-|---0---0---0---0-|
B|---1---1---1---1-|---1---1---1---1-|---0---0---0---0-|
G|-----0-------0---|-----2-------2---|-------------2---|
D|-----------------|-3-------3-------|---------2-------|
A|-3-------3-------|-----------------|-----2-----------|
E|-----------------|-----------------|-0---------------|
     

  E
e|---0---0---0---0-|
B|---0---0---0---0-|
G|-1-----------2---|
D|--------2/4------|
A|----0h2----------|
E|-----------------


Extro:
  D                 Dsus2/C           Dsus2/B
e|---2---0---0-0-0-|---0---0---0-0-0-|---0---0---0-0-0-|
B|---3---3---3-3-3-|---3---3---3-3-3-|---3---3---3-3-3-|
G|---2---2---2-2-2-|---2---2---2-2-2-|---2---2---2-2-2-|
D|-0---0-----------|-----------------|-----------------|
A|-----------------|-3---3-----------|-2---2-----------|
E|-----------------|-----------------|-----------------|

  Dsus2/Bb
e|---0---0---------|
B|---3---3---------|
G|---2---2---------|
D|-----------------|
A|-1---1-----------|
E|-----------------|

 
Comments