Young Neil - Needle And The Damage Done Chords & Tabs

 

Needle And The Damage Done Chords & Tabs

Young Neil Chords & Tabs

Version: 1 Type: Tab 0 ratings
1 star 2 stars 3 stars 4 stars 5 stars
comments

Needle And The Damage Done Tab



                       Needle and the damage done
                            by.Neil Young
                                  
This is me second tab its not as fancy as the other tabs that i see if anyone can give me a tab
thing or link to it i would greatly apreciate it my email is at the bottom
i think this tab it better then the others not sure though but find rythm for the picking to


E------2--0--0------------0----------------------0-------------------
B--------------------3-----------3--------3------------3-------------
G----2---2--2--------------------------------------------------------
D--------------------------------------------------------------------
A----------------3-----3-----3--------2-------2-----2----------------
E--------------------------------------------------------------------

[ Tab from: http://www.guitartabs.cc/tabs/y/young_neil/needle_and_the_damage_done_tab.html ]
E----------0----------------0-------0-------0---------0------0------0
B----3------------3--------------------------------------------------
G---------------------------------------0--------2-------3-------2---
D-------------------------------2------------------------------------
A-1-----1-----1---------3--------------------------------------------
E--------------------------------------------------------------------
                                strum this  then Srum open E chord
E------0-------0-----------------------------------------------------
B--------------------------------------------------------------------
G--0-------0---------------------2-----------------------------------
D--------------------------------2-----------------------------------
A--------------------------------2-----------------------------------
E--------------------------------------------------------------------

E------3--0--0------------0----------------------0-------------------
B--------------------3-----------3--------3------------3-------------
G----2---2--2--------------------------------------------------------
D--------------------------------------------------------------------
A----------------3-----3-----3--------2-------2-----2----------------
E--------------------------------------------------------------------


E------------0--------0----------------------------------------------
B-----3--------------------------------------------------------------
G--------------------------------------------------------------------
D--------------------------------------------------------------------
A--1-----1-------1---------------------------------------------------
E--------------------------------------------------------------------

Then after you hit that you strum (C) chord 
then (F) bar chord form or open you decide
then Neils Chord i think the one listed in the tab
Then you hit the open (E) chord then start over
Then sing along oh yah find the strum for it i found it

Any problems Email me at Mediumus@hotmail.com free of charge
Comments