Young Neil - Deadman Theme Chords & Tabs

 

Deadman Theme Chords & Tabs

Young Neil Chords & Tabs

Version: 1 Type: Tab 0 ratings
1 star 2 stars 3 stars 4 stars 5 stars
comments

Deadman Theme Tab

   
Tabbed by:Patty-O   
e-mail for ques, cobain_fan1@hotmail.com


HEY! dont know how accurate this is going to be but give it a try, 
i have no guitar infront of me. just play how it sounds whith the 
note changes.,

I didnt tab the strumming patterns for obvious reason but its 
easy enough to figure out yourself

Intro and main riff that plays during solo and at begining, 
mostly on accoustic

 Bm          Bm   E          D

-2----0h2-----2---2--0--2----2--0--2-----------
-3----0h3-----3--------------3--3--3-----------
-4----4-------4---1--1--1----2--2--2-----------
-4----4-------4---2--2--2----------------------
-2----2-------2---2--2--2----------------------
---------------------------------------------
[ Tab from: http://www.guitartabs.cc/tabs/y/young_neil/deadman_theme_tab.html ]
 F           
-2---0-----------------------------------
-2---0-----------------------------------
-3---2---4--4--3--2--1--0----------------
-4---4---4-----------------0-------------
-4---4---2--------------------0-0-2-5-2--
-2---2-----------------------------------
                            Electric part here
            

After that picking part its followed by this accoustic part

D A G A

Where i left off the solo begins HAVE FUN!!!!!! 

*any questions just ask 

  D

--2----------------------------5-2-2---
--3----------------5-7---7-5-3---------
--2---7-9-11-9-7-4-----4---------------
---------------------------------------
---------------------------------------
---------------------------------------

---------------------------------------
-3-5-7-5-3-2-2-3-5-7-5-3-5-3----5-3----
-----------------------------4------3--
---------------------------------------
---------------------------------------
---------------------------------------

---------------------------------------
5-3-------3----------------------------
----2--1----1-0------------------------
---------------------------------------
--------------------0-0-2-5-2----------
---------------------------------------
Comments