Young Heart Attack - Sick Of Doing Time Chords & Tabs

 

Sick Of Doing Time Chords & Tabs

Young Heart Attack Chords & Tabs

Version: 1 Type: Bass Tab 0 ratings
1 star 2 stars 3 stars 4 stars 5 stars
comments

Sick Of Doing Time Bass Tab

   
Sick of doing time

this should be bang on
go to http://www.youngheartattack.net to check them out


Verse 1

g --|--------------------------------------------------------------
d --|--------------------------------------------------------------
a --|--------------------------------5-55-555----------------------
e 8-|5-55-555-555-5558-88-8883-33-333--------1-11-1115-55-555-555-5

g --|----------------------------------------------------------------
d --|----------------------------------------------------------------
a --|--------------------------------5-55-5558-88-888----------------
e 8-|5-55-555-555-5558-88-8883-33-333----------------5---------------

Chorus

g ----------------------------------------------------------------
d ----------------------------------------------------------------
a --------5-55-555--------------------------------5-55-555-555-555
e 8-88-888--------5-55-555-555-5558-88-8883-33-333----------------

g ------------------------------------------------------------
d ------------------------------------------------------------
a --------5-55-555------------------------5-------------------
e 8-88-888--------5-55-555-555-5558-88-888--------------------

fill

g --------------------------------
d---------------------------------
a --------------------------------
e 8-5-55-5555555558-5-55-555555555

Verse 2
[ Tab from: http://www.guitartabs.cc/tabs/y/young_heart_attack/sick_of_doing_time_btab.html ]
g --|----------------------------------------------------------------
d --|----------------------------------------------------------------
a --|--------------------------------5-55-555------------------------
e 8-|5-55-555-555-5558-88-8883-33-333--------1-11-1115-55-355-355-355

g --|----------------------------------------------------------------
d --|----------------------------------------------------------------
a --|--------------------------------5-55-5558-88-888----------------
e 8-|5-55-555-555-5558-88-8883-33-333----------------5---------------

Chorus 2

g ---------------------------------------------------------------
d ---------------------------------------------------------------
a --------5-55-555--------------------------------5-55-555-555-55
e 8-88-888--------5-55-555-555-5558-88-8883-33-333---------------

g ---------------------------------------------------------------
d ---------------------------------------------------------------
a --------5-55-55-------------------------5-55-55----------------
e 8-88-88---------5-55-55-5-55-55-8-88-88---------5-55-55-5-55-55

Guitar Part

g --|----------------------------------------------------------------
d --|----------------------------------------------------------------
a --|--------------------------------5-55-5558-88-888----------------
e 8-|5-55-555-555-5558-88-8883-33-333----------------5-55-355-355-355

Verse 3

g --|-----------------------------------------------------------------
d --|-----------------------------------------------------------------
a --|------------353------------------5-55-5558-88-888----------------
e 8-|5-55-3555835---538-88-8883-33-333----------------5---------------

Outro
g -----
d -----
a -----
e 8-5--

The Order

verse 1
chorus 1
fill
verse 2
chorus 2
fill x2
guitar part
verse 3
chorus 1
fill x2
outro
Comments