Young Heart Attack - Misty Rowe Chords & Tabs

 

Misty Rowe Chords & Tabs

Young Heart Attack Chords & Tabs

Version: 1 Type: Tab 0 ratings
1 star 2 stars 3 stars 4 stars 5 stars
comments

Misty Rowe Tab

-----------------------------------------------------------------------------
Tabbed by:angus young heart attack
Email:

Tuning:standard

this is a killer song by an amazing band! this tab is deffently right but listen to the 
to get the rythm right. iv only tab the intro and pre choros but the main riff is 
all through the choros. guitar 2 plays the chords which are /G sharp/F sharp/B /C
sharp i havent worked out the solo but its in the key of G sharp. HAVE FUN YOUNG HEART ATTACK RULE

[ Tab from: http://www.guitartabs.cc/tabs/y/young_heart_attack/misty_rowe_tab.html ]
intro/main riff guitar 1
e|----------------------------------------------------------------------------|
B --------------7-------------------7--9999-7---------------------------------|
G|-8-8--6---8--66--------8-8--6--8--6--6666-6---------------------------------|
D|-6-6--6---6--6---------6-6--6--6-----6666-----------------------------------|
A|----------------------------------------------------------------------------|
E|----------------------------------------------------------------------------|


pre choros part
e|----------------------------------------------------------------------------|
B|----------------------------------------------------------------------------|
G|----------------------------------------------------------------------------|
D|--6------------------------6------------------------------------------------|
A|--6------2-------2-4-2-----6-----2------------------------------------------|
E|--4--2-4--4--2-4------4-2--4-2-4--2-----------------------------------------|
Comments