Young Heart Attack - El Camino Chords & Tabs

 

El Camino Chords & Tabs

Young Heart Attack Chords & Tabs

Version: 1 Type: Tab 0 ratings
1 star 2 stars 3 stars 4 stars 5 stars
comments

El Camino Tab

Young Heartattack - El Camino.

The verse contains a high progression probably on the bottom 3 strings
but the A chord is strummed repeatidly.

The main riff sounds almost 100% correct and the verse is good, listen
to song for exact strumming pattern in verse.

Use distortion for the song.

e---------------------------------------------------------------------|
B---------------------------------------------------------------------|
G----------------0h2p0-------------------------------------0h2p0------|
D----2-2p0---0-2-------2----2-2p0---0-2-0------2-2p0---0-2-------2----|
A----------2----------------------2-------2----------2----------------|
E--0------------------------------------------------------------------|

e----------------------------|
B----------------------------|
G----------------------------|  x3
D--0-1-2-------0-2-----------|
A-------0-1-2----------------|
E----------------------------|
[ Tab from: http://www.guitartabs.cc/tabs/y/young_heart_attack/el_camino_tab.html ]
e----------------------------------------------|
B----------------------------------------------|
G----------------------------------------------|
D--7-7-7-7-7-7-7-7-7-7-7-7-7-7-7-7-7-7-7-7-----|
A--7-7-7-7-7-7-7-7-7-7-7-7-7-7-7-7-7-7-7-7-----|
E--5-5-5-5-5-5-5-5-5-5-5-5-5-5-5-5-5-5-5-5-----|

e----------------------------------------------|
B----------------------------------------------|
G----------------0h2p0-------------------------|
D----2-2p0---0-2-------2----2-2p0---0-2-0------|
A----------2----------------------2-------2----|
E--0-------------------------------------------|

e----------------------------------------------|
B----------------------------------------------|
G----------------------------------------------|
D--7-7-7-7-7-7-7-7-7-7-7-7-7-7-7-7-7-7-7-7-----|
A--7-7-7-7-7-7-7-7-7-7-7-7-7-7-7-7-7-7-7-7-----|
E--5-5-5-5-5-5-5-5-5-5-5-5-5-5-5-5-5-5-5-5-----|

e----------------------------------------------|
B----------------------------------------------|
G--------------0h2p0---------------------------|
D--2-2p0---0-2-------2----0-1-2-------0-2------|
A--------2----------------------0-1-2----------|
E----------------------------------------------|
Comments