Young Guns - Dearly Departed Chords & Tabs

 

Dearly Departed Chords & Tabs

Young Guns Chords & Tabs

Version: 1 Type: Bass Tab 0 ratings
1 star 2 stars 3 stars 4 stars 5 stars
comments

Dearly Departed Bass Tab

-------------------------------------------------------------------------------
                             Dearly Departed - Young Guns
-------------------------------------------------------------------------------

Tuning: Drop D

Intro
G|----------------------------------------------------------------------|
D|----------------------------------------------------------------------|  (x2)
A|----------------------------------------------------------------------|
D|-00000-22-555555-77-999999-44-555555----------------------------------|

Verse "Oh dust and bones..."
G|---------------------------------------------------------------|
D|---------------------------------------------------------------|
A|---------------------------------------------------------------|
D|-0~--5--99999999-77777777-5555555555555555---------------------|

G|--------------------------------------------------------------------------|
D|--------------------------------------------------------------------------|
A|--------------------------------------------------------------------------|
D|-99999999-77777777-5555555555555555---------------------------------------|

Chorus
G|--------------------------------------------------------------|
D|--------------------------------------------------------------|  (x4)
A|--------------------------------------------------------------|
D|-00000-22-555555-77-999999-44-555555--------------------------|
[ Tab from: http://www.guitartabs.cc/tabs/y/young_guns/dearly_departed_btab.html ]
2nd Verse "Sticks and stones..."
G|---------------------------------------------------------------|
D|---------------------------------------------------------------|
A|---------------------------------------------------------------|
D|-0~--5--99999999-77777777-5555555555555555---------------------|

G|--------------------------------------------------------------------------|
D|--------------------------------------------------------------------------|
A|--------------------------------------------------------------------------|
D|-99999999-77777777-5555555555555555---------------------------------------|

Chorus
G|--------------------------------------------------------------|
D|--------------------------------------------------------------|  (x4)
A|--------------------------------------------------------------|
D|-00000-22-555555-77-999999-44-555555--------------------------|

Bridge
"I found you..."
G|-----------------------------------------------------------------------|
D|-----------------------------------------------------------------------|
A|-------------------555555555555-7777777777777777-99999999--------------|
D|-99999999-77777777-----------------------------------------------------|

Final Chorus
G|--------------------------------------------------------------|
D|--------------------------------------------------------------|  (x4)
A|--------------------------------------------------------------|
D|-00000-22-555555-77-999999-44-555555--------------------------|


G|--------------------------------------------------------------|
D|--------------------------------------------------------------|  (x2)
A|--------------------------------------------------------------|
D|-00000-22-555555-77-999999-44-555555--------------------------|

G|--------------------------------------------------------------|
D|--------------------------------------------------------------|
A|--------------------------------------------------------------|
D|-0~-----------------------------------------------------------|
Comments