Young Guns - Bones Chords & Tabs

 

Bones Chords & Tabs

Young Guns Chords & Tabs

Version: 4 Type: Tab 0 ratings
1 star 2 stars 3 stars 4 stars 5 stars
comments

Bones Tab

   
Rhythm Guitar - John Taylor

Intro
C#|-----------------------------------------------------------------|
G#|-----------------------------------------------------------------|
E |-----------------------------------------------------------------|
B |---------------------------------------------------------X-X-X-X-|
F#|---------------------------------------------------------X-X-X-X-|
B |---------------------------------------------------------X-X-X-X-|X2

C#|-----------------------------------------------------------------|
G#|-----------------------------------------------------------------|
E |-----------------------------------------------------------------|
B |-3~--3~--3-3-10~---1010~-1010101010~-10~-10109~----9-9~--9-9-9-9-|
F#|-3~--3~--3-3-7~----7-7~--7-7-7-7-5~--5~--5-5-5~----5-5~--5-5-5-5-|
B |-3~--3~--3-3-7~----7-7~--7-7-7-7-5~--5~--5-5-5~----5-5~--5-5-5-5-|X2

Verse
“I'd fashioned my own cross”
C#|-----------------------------------------------------------------|
G#|-1010101010101010101010101010101010101010101010101010101010101010|
E |-X-X-X-X-X-X-X-X-X-X-X-X-X-X-X-X-X-X-X-X-X-X-X-X-X-X-X-X-X-X-X-X-|
B |-7-7-7-7-7-7-7-7-7-7-7-7-7-7-7-7-7-7-7-7-7-7-7-7-7-7-7-7-7-7-7-7-|
F#|-----------------------------------------------------------------|
B |-----------------------------------------------------------------|

Pre Chorus
C#|-----------------------------------------------------------------|
G#|-----------------------------------------------------------------|
E |-----------------------------------------------------------------|
B |-3~--3~--3-3-10~---1010~-1010101010~-10~-10109~----9-9~--9-9-9-9-|
F#|-3~--3~--3-3-7~----7-7~--7-7-7-7-5~--5~--5-5-5~----5-5~--5-5-5-5-|
B |-3~--3~--3-3-7~----7-7~--7-7-7-7-5~--5~--5-5-5~----5-5~--5-5-5-5-|X2

Chorus
C#|-----------------------------------------------------------------|
G#|-----------------------------------------------------------------|
E |-----------------------------------------------------------------|
B |-0~--0~--0-0-3~----3-3~--3-3-3-3-7~--7~--7-7-5~----5-5~--5-5-5-5-|
F#|-0~--0~--0-0-3~----3-3~--3-3-3-3-7~--7~--7-7-5~----5-5~--5-5-5-5-|
B |-0~--0~--0-0-3~----3-3~--3-3-3-3-7~--7~--7-7-5~----5-5~--5-5-5-5-|X2

Verse
“They say the spirit's willing”
C#|-----------------------------------------------------------------|
G#|-1010101010101010101010101010101010101010101010101010101010101010|
E |-X-X-X-X-X-X-X-X-X-X-X-X-X-X-X-X-X-X-X-X-X-X-X-X-X-X-X-X-X-X-X-X-|
B |-7-7-7-7-7-7-7-7-7-7-7-7-7-7-7-7-7-7-7-7-7-7-7-7-7-7-7-7-7-7-7-7-|
F#|-----------------------------------------------------------------|
B |-----------------------------------------------------------------|
Repeat Pre Chorus
Repeat Chorus
[ Tab from: http://www.guitartabs.cc/tabs/y/young_guns/bones_tab_ver_4.html ]
Breakdown
C#|-----------------------------------------------------------------|
G#|-----------------------------------------------------------------|
E |-----------------------------------------------------------------|
B |-7~--------------------------------------------------------------|
F#|-7~--------------------------------------------------------------|
B |-7~--------------------------------------------------------------|

Solo
C#|-----------------------------------------------------------------|
G#|-----------------------------------------------------------------|
E |-----------------------------------------------------------------|
B |-7-5-7-7---5-7-7---5-7-7---------7-5-7-7---5-7-------------5-----|
F#|---------------------------3-------------------3---5---7---------|
B |-----------------------------------------------------------------|

C#|-----------------------------------------------------------------|
G#|-----------------------------------------------------------------|
E |-----------------------------------------------------------------|
B |-7-5-7-7---5-7-7---5-7-7---------7-5-7-7---5-7-7-----------------|
F#|---------------------------3-----------------------5-5-0-5-7-7---|
B |-----------------------------------------------------------------|

C#|-----------------------------------------------------------------|
G#|-----------------------------------------------------------------|
E |-----------------------------------------------------------------|
B |-7-5-7-7---5-7-7---5-7-7---------7-5-7-7---5-7-------------5-----|
F#|---------------------------3-------------------3---5---7---------|
B |-----------------------------------------------------------------|

C#|---------------------------------12----12----12----15------------|
G#|---------------------------------15b17-15b17-15b17-19b21---------|
E |-----------------------------------------------------------------|
B |-9-9-7-9---7-9-9---7-9-9---7-9-9---------------------------------|
F#|-----------------------------------------------------------------|
B |-----------------------------------------------------------------|

Repeat Pre Chorus
Repeat Chorus

Outro
C#|-----------------------------------------------------------------|
G#|-----------------------------------------------------------------|
E |-----------------------------------------------------------------|
B |-3~--3~--3-3-10~---1010~-101010109~--9~--9-9-9~----9-9~--9-9-9-9-|
F#|-3~--3~--3-3-7~----7-7~--7-7-7-7-5~--5~--5-5-5~----5-5~--5-5-5-5-|
B |-3~--3~--3-3-7~----7-7~--7-7-7-7-5~--5~--5-5-5~----5-5~--5-5-5-5-|

C#|-----------------------------------------------------------------|
G#|-----------------------------------------------------------------|
E |-----------------------------------------------------------------|
B |-3~--3~--3-3-10~---1010~-101010109~------------------------------|
F#|-3~--3~--3-3-7~----7-7~--7-7-7-7-5~------------------------------|
B |-3~--3~--3-3-7~----7-7~--7-7-7-7-5~------------------------------|
Comments