Young Guns - Bones Chords & Tabs

 

Bones Chords & Tabs

Young Guns Chords & Tabs

Version: 2 Type: Bass Tab 0 ratings
1 star 2 stars 3 stars 4 stars 5 stars
comments

Bones Bass Tab

   
-------------------------------------------------------------------------------
                             BONES - Young Guns
-------------------------------------------------------------------------------
Tabbed by: Sand 
E-mail: sand44444444@hotmail.com

Tuning:E A D G (Standard)

No bass at the begining

Intro
G|---------------------------------------------------------------------|
D|---------------------------------------------------------------------|
A|----5-5-5-5-5-5------------------------------------------------------|X2
E|-----------------2-2-2-2-2-2-2-2-2-2-0-0-0-0-0-0-0-0-0-0-0-0-0-0-----|


Verse 

"down under the night sky"
G|----------------------------------------------------------------|
D|----------------------------------------------------------------|
A|----------------------------------------------------------------| X4
E|----2-2-2-2-2-5-5-5-5-5-5-5-5-5-0-0-0-0-0-0-0-0-0-0-0-0-0-------|


Pre Chorus (same as intro)

"I see down the end of the road"
G|---------------------------------------------------------------------|
D|---------------------------------------------------------------------|
A|----5-5-5-5-5-5------------------------------------------------------|X2
E|-----------------2-2-2-2-2-2-2-2-2-2-0-0-0-0-0-0-0-0-0-0-0-0-0-0-----|


Chorus

"I feel it in my bones"
G|-----------------------------------------------------------------|
D|-----------------------------------------------------------------|
A|----2-2-2-2-2-5-5-5-5-5-5-5-5-5-5--------------------------------| X2
E|----------------------------------2-2-2-2-2-0-0-0-0-0-0-0-0-0-0--|

"I'll do this on my own"
G|----------------------------------------------------------------|
D|----------------------------------------------------------------|
A|----------------------------------------------------------------| X2
E|----2-2-2-2-2-5-5-5-5-5-5-5-5-5-0-0-0-0-0-0-0-0-0-0-0-0-0-------|


Verse 2 

"they say the spirit's willing"
G|----------------------------------------------------------------|
D|----------------------------------------------------------------|
A|----------------------------------------------------------------| X2
E|----2-2-2-2-2-5-5-5-5-5-5-5-5-5-0-0-0-0-0-0-0-0-0-0-0-0-0-------|



Pre Chorus 
[ Tab from: http://www.guitartabs.cc/tabs/y/young_guns/bones_btab_ver_2.html ]
"I see down the end of the road"
G|---------------------------------------------------------------------|
D|---------------------------------------------------------------------|
A|----5-5-5-5-5-5------------------------------------------------------|X2
E|-----------------2-2-2-2-2-2-2-2-2-2-0-0-0-0-0-0-0-0-0-0-0-0-0-0-----|


Chorus

"I feel it in my bones"
G|-----------------------------------------------------------------|
D|-----------------------------------------------------------------|
A|----2-2-2-2-2-5-5-5-5-5-5-5-5-5-5--------------------------------| X2
E|----------------------------------2-2-2-2-2-0-0-0-0-0-0-0-0-0-0--|


Solo

"I do this on my own"
G|-------------------------------------------------------------------------|
D|-------------------------------------------------------------------------|
A|-------------------------------------------------------------------------|
E|----2~~~~~~~~~~~~~~(let ring)--------------------------------------------|

G|-------------------------------------------------------------------------|
D|-------------------------------------------------------------------------|
A|------------------------------------5-5-5-5-5-5-5-5-5-5-5-5-5-5-5-5------|
E|----2-2-2-2-2-2-2-2-2-2-2-2-2-2-2-2--------------------------------------|


"We're all architects of our own private hell"
G|-------------------------------------------------------------------------|
D|-------------------------------------------------------------------------|
A|------------------------------------5-5-5-5-5-5-5-5-5-5-5-5-5-5-5-5------|
E|----2-2-2-2-2-2-2-2-2-2-2-2-2-2-2-2--------------------------------------|

Pre Chorus 

"I see down the end of the road"
G|---------------------------------------------------------------------|
D|---------------------------------------------------------------------|
A|----5-5-5-5-5-5------------------------------------------------------|X2
E|-----------------2-2-2-2-2-2-2-2-2-2-0-0-0-0-0-0-0-0-0-0-0-0-0-0-----|

Chorus

"I feel it in my bones"
G|-----------------------------------------------------------------|
D|-----------------------------------------------------------------|
A|----2-2-2-2-2-5-5-5-5-5-5-5-5-5-5--------------------------------| X3
E|----------------------------------2-2-2-2-2-0-0-0-0-0-0-0-0-0-0--|



Finish on
G|-----------------------------------------------------------------|
D|-----------------------------------------------------------------|
A|----2-2-2-2-2-5-5-5-5-5-5-5-5-5-5--------------------------------| X3
E|----------------------------------2-~~~~~~~~~~~~~~~~~~(let ring)-|




| /  slide up
| \  slide down
| h  hammer-on
| p  pull-off
| ~  vibrato
| +  harmonic
| x  Mute note
===============================================================================
Comments