Young Guns - Bones Chords & Tabs

 

Bones Chords & Tabs

Young Guns Chords & Tabs

Version: 1 Type: Bass Tab 0 ratings
1 star 2 stars 3 stars 4 stars 5 stars
comments

Bones Bass Tab

This is probably right, could be shite though


intro
e------2-2-2-2-----------------0-0-0-0-0-0-0-0-0-0-|
a--------------0-0-0-0-0-0-0-0---------------------|
d--------------------------------------------------| x2
g--------------------------------------------------|



Heavy part of the intro (before singing)
e------------------------4-4-4-4-4-4-4-4-4-4-|
a----5-5-5-5-1-1-1-1-1-1---------------------|
d--------------------------------------------|   x2
g--------------------------------------------|


Verse (Same as intro)

"down under the night sky..."
e------2-2-2-2-----------------0-0-0-0-0-0-0-0-0-0-|
a--------------0-0-0-0-0-0-0-0---------------------|
d--------------------------------------------------| x4
g--------------------------------------------------|


Pre Chorus (Same as intro pt 2)

"I see down the end of the road..."
e------------------------4-4-4-4-4-4-4-4-4-4-|
a----5-5-5-5-1-1-1-1-1-1---------------------|
d--------------------------------------------|   x2
g--------------------------------------------|


Chorus

"I feel it in my bones"
e----------------------------------------4-4-4-4-4-4-4-4-|
a----2-2-2-2-2-5-5-5-5-5-5-5-5-1-1-1-1-1-----------------|
d--------------------------------------------------------|   x2
g--------------------------------------------------------|


Back to intro (but x4 instead of x2)
e------2-2-2-2-----------------0-0-0-0-0-0-0-0-0-0-|
a--------------0-0-0-0-0-0-0-0---------------------|
d--------------------------------------------------| x4
g--------------------------------------------------|

[ Tab from: http://www.guitartabs.cc/tabs/y/young_guns/bones_btab.html ]
Pre Chorus
"I see down the end of the road..."
e------------------------4-4-4-4-4-4-4-4-4-4-|
a----5-5-5-5-1-1-1-1-1-1---------------------|
d--------------------------------------------|   x2
g--------------------------------------------|


Chorus

"I feel it in my bones"
e----------------------------------------4-4-4-4-4-4-4-4-|
a----2-2-2-2-2-5-5-5-5-5-5-5-5-1-1-1-1-1-----------------|
d--------------------------------------------------------|   x2
g--------------------------------------------------------|

Solo

"i do this on my own"
e----2~~~~~~~~~~(let ring)-------------------|
a--------------------------------------------|
d--------------------------------------------|
g--------------------------------------------|

e----2-2-2-2-2-2-2-2-2-2-2-2-2-2-2-2-------------------------------------|
a------------------------------------5-5-5-5-5-5-5-5-0-0-0-0-0-0-0-0-----|
d------------------------------------------------------------------------|
g------------------------------------------------------------------------|

"We're all architects of our own private hell"
e----2-2-2-2-2-2-2-2-2-2-2-2-2-2-2-2-------------------------------------|
a------------------------------------5-5-5-5-5-5-5-5-0-0-0-0-0-0-0-0-----|
d------------------------------------------------------------------------|
g------------------------------------------------------------------------|


Pre Chorus
"I see down the end of the road..."
e------------------------4-4-4-4-4-4-4-4-4-4-|
a----5-5-5-5-1-1-1-1-1-1---------------------|
d--------------------------------------------|   x2
g--------------------------------------------|


Chorus

"I feel it in my bones"
e----------------------------------------4-4-4-4-4-4-4-4-|
a----2-2-2-2-2-5-5-5-5-5-5-5-5-1-1-1-1-1-----------------|
d--------------------------------------------------------|   x4
g--------------------------------------------------------|
Comments