Yorn Pete - Ez Chords & Tabs

 

Ez Chords & Tabs

Yorn Pete Chords & Tabs

Version: 1 Type: Tab 0 ratings
1 star 2 stars 3 stars 4 stars 5 stars
comments

Ez Tab

song: EZ
artist: Pete Yorn
album: musicforthemorningafter
comments/questions: tasty_nothings@hotmail.com

Use these chords the whole song
[ Tab from: http://www.guitartabs.cc/tabs/y/yorn_pete/ez_tab.html ]
e|----2-2----2-2--|
B|----3-3----3-3--|
G|----2-2----2-2--|
D|--0-------------|
A|---------4------|
E|----------------|

e|----2-2----2-2-----2-2----2-2--|
B|----3-3----3-3-----3-3----3-3--|
G|----2-2----2-2-----2-2----2-2--|
D|--0----------------------------|
A|---------4-------2-------------|
E|------------------------3------|
Comments