Yoni Gossat - I Wish You Were Here With Me Chords & Tabs

 

I Wish You Were Here With Me Chords & Tabs

Yoni Gossat Chords & Tabs

Version: 1 Type: Tab 0 ratings
1 star 2 stars 3 stars 4 stars 5 stars
comments

I Wish You Were Here With Me Tab

                          
                     song written by: yoni and yair


[ Tab from: http://www.guitartabs.cc/tabs/y/yoni_gossat/i_wish_you_were_here_with_me_tab.html ]
                            intro
1.----------------------------------------------------------------------
2.-------------1------------1---------------------------------------------
3.----------------0------------0------------------------------------------
4.-------0h2-----------------------2-----x3-----------------------------------
5.--3-----------------3---------------------------------------------------
6.----------------------------------------------------------------------             

                           main
1.--------0----------------0----------------0------------------------------
2.----------1----------------1----------------1---------------------------
3.------------0-----------------0----------------0------------------------
4.--------------------------------------3-------------3s5s3,0,0--x4-----------------
5.---3-------------2------------------------------------------------------
6.----------------------------------------------------------------------

    




        
    
Comments