Yo La Tengo - Deeper Into Movies Chords & Tabs

 

Deeper Into Movies Chords & Tabs

Yo La Tengo Chords & Tabs

Version: 1 Type: Tab

Deeper Into Movies Tab

   
Intro: (Loop Thing)
C
--(0)------------|
-------(3)-------|
-0-0-0-0-0-0-0-0-|
-0-0-0-0-0-0-0-0-|
-3-3-3-3-3-3-3-3-|
-----------------|

Intro (Part Two):
F (X2)            E (X2)
-----------------|-----------------|
-----0-----0---0-|----0-----0------|
-0-0-0-0-0-0-0-0-|-0-0-0-0-0-0-0-0-|C                                D
-----------------------------------------------------------------|
-0-0-0-0-0-0-0-0-0-0-0-0-0-0-0-0-0-0-0-0-0-0-0-0-0-0-0-0-0-0-0---|
-0-0-0-0-0-0-0-0-0-0-0-0-0-0-0-0-0-0-0-0-0-0-0-0-0-0-0-0-0-0-0---|
-0-0-0-0-0-0-0-0-0-0-0-0-0-0-0-0-0-0-0-0-0-0-0-0-0-0-0-0-0-0-0---|
-3-3-3-3-3-3-3-3-3-3-3-3-3-3-3-3-5-5-5-5-5-5-5-5-5-5-5-5-5-5-5---|
-----------------------------------------------------------------|
[ Tab from: http://www.guitartabs.cc/tabs/y/yo_la_tengo/deeper_into_movies_tab.html ]
Choruses:
F                                E
-----------------------------------------------------------------|
-0-0-0-0-0-0-0-0-0-0-0-0-0-0-0-0-0-0-0-0-0-0-0-0-0-0-0-0-0-0-0---|
-0-0-0-0-0-0-0-0-0-0-0-0-0-0-0-0-0-0-0-0-0-0-0-0-0-0-0-0-0-0-0---|
-0-0-0-0-0-0-0-0-0-0-0-0-0-0-0-0-0-0-0-0-0-0-0-0-0-0-0-0-0-0-0---|
-8-8-8-8-8-8-8-8-8-8-8-8-8-8-8-8-7-7-7-7-7-7-7-7-7-7-7-7-7-7-7---|
-----------------------------------------------------------------|

Outro:

[Verse Chords] with:

------------------------------------|
------------------------------------|
-12BU-(14)BD-12BU-(14)--------------|
------------------------------------|
------------------------------------|
------------------------------------|

^^^Listen to the song to hear the bending up and down.

Notes:
ITS HALF A STEP DOWN! (Eb,Ab,Db,Gb,Bb,Eb)
Play open notes on other string LOTS!!
Listen to song for strumming
Lots of fuzz
IMPROV THE SOLO!
=]