Yngwie Malmsteen - Vengeance Chords & Tabs

 

Vengeance Chords & Tabs

Yngwie Malmsteen Chords & Tabs

Version: 3 Type: Tab 0 ratings
1 star 2 stars 3 stars 4 stars 5 stars
comments

Vengeance Tab

   
The solo is nuts so i havent tabbed that, and by intro i mean the acoustic intro that
hasnt been tabbed yet, reverb and a bit of chorus goes a treat. 1/2 step down

D#||--17----17----17----17----17----17----17----17----|
A#||-----20----18----17----15----20----18----17----15-|
F#||--------------------------------------------------|
C#||--------------------------------------------------|
G#||--------------------------------------------------|
D#||--------------------------------------------------|


                                                   
--------------------------------------------------|
--18----18----18----18----15----15----15----15----|
-----21----19----17----15----17----15----14----12-|
--------------------------------------------------|
--------------------------------------------------|
--------------------------------------------------|

[ Tab from: http://www.guitartabs.cc/tabs/y/yngwie_malmsteen/vengeance_tab_ver_3.html ]
                                                     
----------------------------------------------------|
--11----11----11----11------------------------------|
-----14----12----10----9-12-10h12h10----------------|
-------------------------------------14-12-11-12-14-|
----------------------------------------------------|
----------------------------------------------------|


                     ----------------->                               
---------------------------------------------------|
---------------------------------11/15-------------|
------------------------------10-------14-15-12/14-|
-----------12h11h12--------12----------------------|
---12-------------------12-------------------------|
-------12------------10----------------------------|
                     sweep------------>

                        A.H                           
-------------------------------||
-------------------------------||
-------------------------------||
--15-14-12--14----------<5>----||
------------------12-----------||
-------------------------------||

shadow__sonic@hotmail.com

RIP DIMEBAG U WILL B MISSED

*look out for Delirious Wizardry and Emergency Broadcast in the future!*
Comments