Yngwie Malmsteen - Vengeance Acoustic Chords & Tabs

 

Vengeance Acoustic Chords & Tabs

Yngwie Malmsteen Chords & Tabs

Version: 1 Type: Tab 0 ratings
1 star 2 stars 3 stars 4 stars 5 stars
comments

Vengeance Acoustic Tab

   
Played a nylon string acoustic

tuned 1/2 step down (Eb Ab Db Gb Bb Eb)

e--17-15-17-13-17-12---------------------------------------------------|
B--------------------15-18-17-18-15-18-13-18-11-15-13-15-11-15-10-15-8-|
G----------------------------------------------------------------------|
D----------------------------------------------------------------------|
A----------------------------------------------------------------------|
E----------------------------------------------------------------------|
[ Tab from: http://www.guitartabs.cc/tabs/y/yngwie_malmsteen/vengeance_acoustic_tab.html ]
                           ~~~~~~~~~~                           ~~~~~
e--------------------------------------------------------------------|
B--11-10-11-8-11-6-11-5----8(6)-------------5------------------------|
G-------------------------------------7-6-7-----7-6-7----------------|
D-------------------------------------------------------7------------|
A-----------------------------------------------------------8---7----|
E--------------------------------------------------------------------|

       s w e e p       ritardando      ~~~~
e--------------5-10-5/6---------------------------------------|
B------------6-----------8/10--6--5---------------------------|
G----------7-------------------------7/9--------[7]-----------|
D--------7---------------------------------7------------------|
A--4-5-8------------------------------------------------------|
E-------------------------------------------------------------|

notation:

~~~~~~~~~
8(6)        trill

~~~~~~~~~
7           vibrato

8/10        slide

[7]         natural harmonic
Comments