Yngwie Malmsteen - Tocatta Fugue Chords & Tabs

 

Tocatta Fugue Chords & Tabs

Yngwie Malmsteen Chords & Tabs

Version: 1 Type: Tab 0 ratings
1 star 2 stars 3 stars 4 stars 5 stars
comments

Tocatta Fugue Tab

Yngwie Malmsteen
Tocatta Fugue

e:----------15--------------|
B:----14-17----18---17--15--|
G:-14-----------------------|
D:--------------------------|
A:--------------------------|
E:--------------------------|

e:------------------------------13-15-17-13--15-17-18-15--17----15--------------------20-21|
B:----15-17-18-15--17-18-20-17-------------------------------18----17-18-15-17----15-------|
G:-14--------------------------------------------------------------------------18----------|
D:-----------------------------------------------------------------------------------------|
A:-----------------------------------------------------------------------------------------|
E:-----------------------------------------------------------------------------------------|

e:-17-18----17----------17--------------------------------------------------------|
B:-------20----18-20-17----18--20-17--18-15-17-14--18-15-17-------------------21b-|
G:------------------------------------------------------------15--14-----14/------|
D:--------------------------------------------------------------------------------|
A:--------------------------------------------------------------------------------|
E:--------------------------------------------------------------------------------|

:-------15h18------------------------15h18------------------21bf-21~~--19-17---------------|
:-15h18-------15--16p15-15p14--15h18-------15--16p15-15-14----------------------------17-19|
:----------------------------------------------------------------------------17-19-20------|
:------------------------------------------------------------------------------------------|
:------------------------------------------------------------------------------------------|
:------------------------------------------------------------------------------------------|

e:-----17-18~~~---18-17-15----15---------------6-5-3---3-------------21-23-21--18-21-18-|
B:-20----------------------18----18-17-15------------6---6-5-3--------------------------|
G:----------------------------------------18-------------------6~~----------------------|
D:--------------------------------------------------------------------------------------|
A:--------------------------------------------------------------------------------------|
E:--------------------------------------------------------------------------------------|

e:-21-23-21--18-21-18--15-18-15--12-15-12--15-18-15--12-15-12--9-2-9--6-9-6--9-12-9--12-15-|
B:-----------------------------------------------------------------------------------------|
G:-----------------------------------------------------------------------------------------|
D:-----------------------------------------------------------------------------------------|
A:-----------------------------------------------------------------------------------------|
E:-----------------------------------------------------------------------------------------|

:-12--15-18-15--15-15-18-15--15-15-18-15--15-15-18-15--18-21-18--18-21-18--21-23-21--21-23-|
:------------------------------------------------------------------------------------------|
:------------------------------------------------------------------------------------------|
:------------------------------------------------------------------------------------------|
:------------------------------------------------------------------------------------------|
:------------------------------------------------------------------------------------------|
[ Tab from: http://www.guitartabs.cc/tabs/y/yngwie_malmsteen/tocatta_fugue_tab.html ]
e:-21--21-23-21--21-23-21--21-23-21--21b--18b----------------------------21b---------|
B:----------------------------------------------15~~~-----------------19-------------|
G:----------------------------------------------------------7------19--------------5-|
D:-------------------------------------------------------7--7---20--------------5--5-|
A:-------------------------------------------------------7--5-------------------5--3-|
E:-------------------------------------------------------5----------------------3----|

e:----------19--------------------20--------------------18------------------19------------|
B:-------17--------------------18--------------------16------------------17---------------|
G:----16------------3-------17-------------4------15------------3-----16------------5-----|
D:-17------------3--3----18-------------4--4---16------------3--3--17------------5--5--17-|
A:---------------3--1-------------------4--2-----------------3--1----------------5--3-----|
E:---------------1----------------------2--------------------1-------------------3--------|

e:-------19---------------------18~~~~-----------|
B:----17--------------------19-------------------|
G:-16------------7-------18----------------------|
D:------------7--7----19-------------------------|
A:------------7--5-------------------------------|
E:------------5----------------------------------|

:-----------------------------------------------5p3-5----5-3--------------|
:-10-10----11-10---8-8b-8~~~~~---6---3-----------------------6-5--2-(2)h3-|
:-------12-----------------------------5-3--------------------------------|
:------------------------------------------5------------------------------|
:-------------------------------------------------------------------------|
:-------------------------------------------------------------------------|


e:------------------------------13-15-17-13--15-17-18-15--17----15--------------------20-21|
B:----15-17-18-15--17-18-20-17-------------------------------18----17-18-15-17----15-------|
G:-14--------------------------------------------------------------------------18----------|
D:-----------------------------------------------------------------------------------------|
A:-----------------------------------------------------------------------------------------|
E:-----------------------------------------------------------------------------------------|

e:-17-18----17----------17-----------------------------------------------------------------|
B:-------20----18-20-17----18--20-17--18-15-17-14--18-15-17--------------------------------|
G:----------------------------------------------------------15--14h15p14h15p14h15p14h15p14-|
D:-----------------------------------------------------------------------------------------|
A:-----------------------------------------------------------------------------------------|
E:-----------------------------------------------------------------------------------------|

e:-17h18p17h18p17h18p17-------------------------14----14-15-14-15--17-15-17-15--20-21-17-18|
B:------------------------14-15-14-15-14--15-17----17--------------------------------------|
G:-----------------------------------------------------------------------------------------|
D:-----------------------------------------------------------------------------------------|
A:-----------------------------------------------------------------------------------------|
E:-----------------------------------------------------------------------------------------|

e:----17----------17--------------------|
B:-20----18-20-17----18-20-17-----------|
G:-----------------------------19bf~~~~-|
D:--------------------------------------|
A:--------------------------------------|
E:--------------------------------------|
Comments