Yngwie Malmsteen - The Seventh Sign Chords & Tabs

 

The Seventh Sign Chords & Tabs

Yngwie Malmsteen Chords & Tabs

Version: 1 Type: Tab 0 ratings
1 star 2 stars 3 stars 4 stars 5 stars
comments

The Seventh Sign Tab

Yngwie Malmsteen
Seventh Sign

-----------------------------------------------------------------|------------|
----13-11-13-9-13-8-13-----------------9---13-11-9-8---------8---|------------|
-10--------------------10--9--10--12-----------------10-9-10---9-|------------|
-----------------------------------------------------------------|------------|
-------------------------10-10--10--10---------------------------|------------|
-----------------------------------------------------------------|------------|


-------------------------------------------------------------------|----------|
----13-11-13-9-13-8-13-----------------9---13-11-9-8---10-11-13-10-|----------|
-10--------------------10--9--10--12-------------------------------|----------|
-------------------------------------------------------------------|----------|
-------------------------10-10--10--10-----------------------------|----------|
-------------------------------------------------------------------|----------|


----13-11-13-9-13-8-13---------------------13-11-9----|----13-11-13-10-13-8---|
-11--------------------11--10--11--13--14----------13-|-----------------------|
-------------------------10--10--10--10---------------|-----------------------|
------------------------------------------------------|-----------------------|
------------------------------------------------------|-----------------------|
------------------------------------------------------|-----------------------|


-13-----------------9-11-|--11-9-11-8-11-6-11---------------7-9-|--9-8-9-6-9--|
----11-11--11-10-11------|--------------------9-9--9-8-9-11-----|-------------|
-------------------------|--------------------------------------|-------------|
-------------------------|--------------------------------------|-------------|
-------------------------|--------------------------------------|-------------|
-------------------------|--------------------------------------|-------------|

[ Tab from: http://www.guitartabs.cc/tabs/y/yngwie_malmsteen/the_seventh_sign_tab.html ]
---9---|------8----8----8---8-12/15-12----------------------------------------|
-9---8-|-----8-8--8-8--8-8-8----------13--------------------------------------|
-------|---10---10---10---9-------------12------------------------------------|
-------|----------------------------------------------------------------------|
-------|----------------------------------------------------------------------|
-------|----------------------------------------------------------------------|


------------------------------------------------------------------------------|
------------------------------------------------------------------------------|
------------------------------------------------------------------------------|
------------------------------------------------------------------------------|
------------------------------------------------------------------------------|
------------------------------------------------------------------------------|
 Chorus
(2x)

-----------------------------------------------------------------------------|
-----------------------------------------------------------------------------|
-----------------------------------------------------------------------------|
---10-9-7-9-7---------10-9-7-9-7---------10-9-7-9-7------7-------------------|
--------------10-9---------------10-9---------------10-9---10-9-7-10-9-7-6-7-|
-0------------------0------------------0-------------------------------------|


----------------------|-------------------------------------------------------|
----------------------|-------------------------------------------------------|
------------------8-9-|-------------------------------------------------------|
-----------7-9-10-----|-------------------------------------------------------|
----7-9-10------------|-------------------------------------------------------|
-10-------------------|-------------------------------------------------------|

(Before solo)

---------------------------------------------|--------------------------------|
-------------------------------------------5-|--------------------------------|
-------------------------------------------4-|--------------------------------|
---------------------------------------5-4-2-|--------------------------------|
-7--5-3-------5--3-2----------------2--3-2---|-7--5-3-------3-----5--3-2------|
--------7-5----------5-3---1--3-5-3-0--------|--------7-5-7---5----------5-3--|


-----------------------------|------------------------------------------------|
---------------------------5-|------------------------------------------------|
---------------------------4-|------------------------------------------------|
-----------------------5-4-2-|------------------------------------------------|
---2----------------2--3-2---|------------------------------------------------|
-5---3---1--1-3-5-3-0--------|------------------------------------------------|
Comments