Yngwie Malmsteen - Save Our Love Chords & Tabs

 

Save Our Love Chords & Tabs

Yngwie Malmsteen Chords & Tabs

Version: 1 Type: Tab 0 ratings
1 star 2 stars 3 stars 4 stars 5 stars
comments

Save Our Love Tab

#----------------------------------PLEASE NOTE---------------------------------#
#This file is the author's own work and represents their interpretation of the #
#song. You may only use this file for private study, scholarship, or research. #
#------------------------------------------------------------------------------##
Yngwie Malmsteen "Save Our Love"
from Eclipse
letostak@netcom.com  Judy Letostak


  guitar synth
|-----------------5-7-8-------7-8-----8-10---|-8-7----------7-8~-----------|
|---------------5----------------------------|-----10-8-10-----------------|
|-------------5------------------------------|-----------------------------|
|-----------7--------------------------------|-----------------------------|
|--------------------------------------------|-----------------------------|
|--------------------------------------------|-----------------------------|
|                                            |                             |
| acoustic                                   |                             |
|--------------------------------------------|-----------------------------|
|-----------0--1--------------0--1p0---------|-------0-1---------0h1p0-----|
|--------2-----------------2----------2------|-----2-----------2-------2---|
|-----2-----------------2----------------2---|---3-----------3-----------3-|
|--0-----------------0-----------------------|-----------------------------|
|--------------------------------------------|-1-----------1---------------|


|12-13-10-13----13----13------------8-12p10p8---------------------17-------|
|------------13----12----10-9-10-12-----------12-10-9-10-------------------|
|--------------------------------------------------------9----14-----------|
|--------------------------------------------------------------------------|
|-------------------------------------------------------------12--14-------|
|--------------------------------------------------------------------------|
|                                                                          |
|                                                                          |
|--------------------------------------------------------------------------|
|-----------0--1-----------------------------------------0--1p0------------|
|--------2--------------------------------------------2----------2---------|
|-----2--------------------------------------------2----------------2------|
|--0--------------------------------------------0--------------------------|
|--------------------------------------------------------------------------|


|-17~----15--13----12--10----8----|-12-10p8--------------------------------|
|---------------------------------|---------10---------10-8----------------|
|--------16--14----12--10----9----|-12----------------------9--------------|
|---------------------------------|---------------10----------10-----------|
|---------------------------------|----------------------------------------|
|---------------------------------|----------------------------------------|
|                                 |Verse                                   |
|                                 |Once we were one  now we're             |
|---------------------------------|----------------------------------------|
|-------0-1---------0h1p0---------|-------0---1----------0--1p0------------|
|-----2-----------2--------2------|-----2--------------2--------2----------|
|---3-----------3-------------3---|---2--------------2------------2--------|
|---------------------------------|-0--------------0-----------------------|
|-1-----------1-------------------|----------------------------------------|

  worlds apart                  Deep inside you know you are my

|------------------------------|-------------------------------------------|
|-------0-1---------0-1-0------|-------------------3---5h6-5--3--3---------|
|-----2-----------2-------2----|------1--2--4---5--------------------------|
|---3-----------3-----------3--|---2--2--0--0------------------------------|
|------------------------------|-------------------------------------------|
|-1-----------1----------------|-0-----------------4-----------------------|

 other heart         1.   My memories seem like yesterday
                     2.   You said to me that we hold the key

|---------------0------||------------------------------|--------------------|
|-3h5-5------0---------||-------0--1---------0-1-0-----|------0-1-------0-1-|
|------------------4~--||-----2------------2-------2---|----2---------2-----|
|----------------------||---2------------2-----------2-|--3---------3-------|
|-0--------------------||-0------------0---------------|--------------------|
|------------0--2--4~--||------------------------------|1---------1---------|

          Can't believe it's all so far away
          Eternal love, we give and take It was meant to me

---------|----------------------------|--------------0---------------------|
--0------|-----------------3--5h6-5-3-|-h5--5~----0------------------------|
----2----|-----1--2--4--5-------------|-----------------4~-----------------|
------3--|---2----0-------------------|------------------------------------|
---------|----------------------------|--0---------------------------------|
---------|-0---------------4----------|-----------0--2--4~-----------------|


All these years                      all our tears
My love for you was                  always true

|-------5----5-----------5----------|------------5-------------------------|
|-----6--------6-------6-------6----|-------6------6---------6-------------|
|---5------------5---5-------5---5--|-----7----------7-----7---------------|
|-----------------------------------|---7----------------7------------5----|
|-8--------8-------8-------7--------|-5--------5-------5--------5--7-------|
|-----------------------------------|--------------------------------------|

and still we sing the same old song  Let's make right what went wrong
and so we sing the same old song     Let's make right all that went wrong

|---------5------5------5-----------|----------------0---------------------|
|------6------------------6-----6---|------6---------0---------------------|
|----5---------5--------------------|--------------------------------------|
|---------------------7-------7-----|----7---------------------------------|
|-8----------7------5---------------|----------------------------------10\-|
|---------------------------8-----8-|--7-------5-----4---------------------|


There's no begining, there's no end  There is no reason to pretend crying
                                                        for help from above
Chorus
|-------------------|----------------------|-------------------------------|
|-------------------|----------------------|-------------------------------|
|-------------------|----------------------|-------------------------------|
|--5----------------|-----------2----------|--3-------------0--------------|
|--3------2---------|-----------0----------|--3-------------0--------------|
|----------------5--|--4-------------3-----|--1-------------2--------------|

[ Tab from: http://www.guitartabs.cc/tabs/y/yngwie_malmsteen/save_our_love_tab.html ]
We've got to save our love  There's no begining there's no end  There's no
                                                                reason to
|-----------------------|----------------------|---------------------------|
|-----------------------|----------------------|---------------------------|
|-----------------------|----------------------|---------------------------|
|--0----------5--3--2---|--5-------------------|-----------2---------------|
|---------------------5-|--3-------2-----------|-----------0---------------|
|--3--------------------|----------------5-----|--4---------------3--------|


ending 1

pretend crying for help from above   We've got to save our love

|----------------------|------------------|--------------------------------|
|----------------------|------------------|--------0-1--------2-0h1p0------|
|----------------------|------------------|------2----------2---------2----|
|---------0------------|--0----------2----|2---2----------2-------------2--|
|--3------0------------|-------------2----|--0----------0------------------|
|--1-------------------|--3----------4----|--------------------------------|


|------------------------------|----------------------------|---------------|
|--------0-1--------0-1p0------|-------0-1--------0-1-0-----|-------0-1-----|
|------2----------2-------2----|-----2----------2-------2---|-----2---------|
|----3----------3-----------3--|---2----------2-----------2-|---3-----------|
|------------------------------|-0----------0---------------|---------------|
|--1----------1----------------|----------------------------|-1-------------|


-------------------||
--------0h1p0------||
------2-------2----||
----3-----------3--||
-------------------||
--1----------------||


ending 2 (same lyrics as ending 1)
                                                  Guitar solo
|----------------|-------------------------------|-------------------------|
|----------------|-------------------------------|-------------------------|
|----------------|-------------------------------|----7-9-10-12-10-9-------|
|----------0-----|---0--------------0----------5/|10~----------------12-10-|
|-3--------0-----|-------------------------------|-------------------------|
|-1--------------|---3--------------3------------|-------------------------|


|-----------------------------------------|--------------------------------|
|-----------------------------------------|--------------------------------|
|----------------10-9tr10-9~--7~----------|--------------------------------|
|-12~----9-10-12------------------10--9~--|-7~--7-9-10-/12---12bf----------|
|-----------------------------------------|--------------------------------|
|-----------------------------------------|--------------------------------|


|---------------------------------------12h13p12-10-------------------------|
|----------------------------9-10h12h13-------------13p12p10-9--------------|
|-----------------------9h10-----------------------------------10p9---------|
|-rb12p10-12~---9h10h12---------------------------------------------12p10p9-|
|---------------------------------------------------------------------------|
|---------------------------------------------------------------------------|

                1/2                      1/2
---------|-----------------|-------10-10h12b-rb12-10----------17p12----------|
---------|------12b--rb12--|-10h12-------------------13p12p10-------13----13-|
---------|-14--------------|-------------------------------------------14----|
---------|-----------------|-------------------------------------------------|
--12-11--|-12--------------|-------------------------------------------------|
---------|-----------------|-------------------------------------------------|


-12/19--20bf~--|-20bf--rb20--19-20p19-17----19----------17----------15------|
---------------|-------------------------17----17----------15---------------|
---------------|----------------------------------19\17-------17\16---16\14-|
---------------|------------------------------------------------------------|
---------------|------------------------------------------------------------|
---------------|------------------------------------------------------------|

                               1/2
-13----------12----------10--------|------------------------5-7/8--7--8-----|
----12----------10-----------------|----------------------5-----------------|
-------14\12-------12\10----10\9b--|-rb9--5~--------------------------------|
-----------------------------------|-----------10p7-------------------------|
-----------------------------------|----------------8p7\5-------------------|
-----------------------------------|----------------------------------------|


-10-8h10p8p7-8p7-------------------------------|----------10-13p10-13/17-13-|
-----------------10p8p6\5h6p5------------------|-------10-------------------|
-------------------------------7p5\4-----------|----10----------------------|
-------------------------------------7p5-------|-12-------------------------|
-----------------------------------------8p7-5-|----------------------------|
-----------------------------------------------|----------------------------|


--------------13---------------------/17--16-18-15-18----18----18-----------|
-15--------------15-----------------------------------18----17----15-14tr15-|
----14--------------14------------------------------------------------------|
-------15p14-----------15\14---12~------------------------------------------|
----------------------------------------------------------------------------|
----------------------------------------------------------------------------|

                                    1/2        1/2
------17p13--|----------13-17/20bf--21b--rb21--21b--rb21--18-21-------18----|
-14~---------|-15----15-----------------------------------------20-20----17-|
-------------|----14--------------------------------------------------------|
-------------|--------------------------------------------------------------|
-------------|--------------------------------------------------------------|
-------------|--------------------------------------------------------------|


-15----------------12\17-|-18--18bf--rb18--17h18p17-15-17-17~\--17/19-------|
----14-14h17----14-------|--------------------------------------------12----|
-------------15----------|-----------------------------------------------14-|
-------------------------|--------------------------------------------------|
-------------------------|--------------------------------------------------|
-------------------------|--------------------------------------------------|


-----12-12h17p12------------12-12h17p12------------12-12h17p12----/22bf----|
--12-------------12------12-------------12------12-------------12----------|
----------------------14---------------------14----------------------------|
---------------------------------------------------------------------------|
---------------------------------------------------------------------------|
---------------------------------------------------------------------------|

chorus

end
Comments