Yngwie Malmsteen - Riot In The Dungeons Chords & Tabs

 

Riot In The Dungeons Chords & Tabs

Yngwie Malmsteen Chords & Tabs

Version: 1 Type: Tab 0 ratings
1 star 2 stars 3 stars 4 stars 5 stars
comments

Riot In The Dungeons Tab

   
RIOT IN THE DUNGEONS

by Yngwie J. Malmsteen

(from the album "Rising Force")

It's not the whole song, just the bridgey type bits. 
I don't know if this is right, 'cos I worked it out from
what I vaguely remember of the song. If you think it's crap
& you can do better, then go on then! I only bothered 
tabbing this bit out 'cos there's no other version I have 
found on the net. If you find a better & complete 
transcription, let me know!

josephmoore_74@yahoo.com


lead guitar

        h p           p p
E------5-6-5---5-------------------------------- 
B----6-------8---8-6-8-6-5---------------------- 
G--7-------------------------------------------- 
D----------------------------------------------- 
A----------------------------------------------- 
E-----------------------------------------------


        h p       p p
E------5-6-5---5-------------------------------- 
B----6-------8---8-6-5~~~----------------------- 
G--7-------------------------------------------- 
D----------------------------------------------- 
A----------------------------------------------- 
E-----------------------------------------------


E------5-6-5---5-------------------------------- 
B----6-------8---8-6-8-6-5-6-5---5-------------- 
G--7---------------------------7---7-6-7~~~----- 
D----------------------------------------------- 
A----------------------------------------------- 
E-----------------------------------------------


    h  p           h p          p
E--6-10-6---------5-8-5--------6 5--------------
B---------10-8-6--------8-6-5------8-6-5-------- 
G----------------------------------------7-6---- 
D----------------------------------------------- 
A----------------------------------------------- 
E-----------------------------------------------
[ Tab from: http://www.guitartabs.cc/tabs/y/yngwie_malmsteen/riot_in_the_dungeons_tab.html ]
                    h p            p
E------------------6-10-6---------8-5----------- 
B-------------------------10-8-6------8-6-5----- 
G-------------------------------------------7--- 
D--8-7-5---------------------------------------- 
A--------8-7~~~--------------------------------- 
E-----------------------------------------------


E--6-5--------9-10~~~--------------------------- 
B------8-6-5------------------------------------ 
G----------------------------------------------- 
D----------------------------------------------- 
A----------------------------------------------- 
E-----------------------------------------------


        h p           p p
E------5-6-5---5-------------------------------- 
B----6-------8---8-6-8-6-5---------------------- 
G--7-------------------------------------------- 
D----------------------------------------------- 
A----------------------------------------------- 
E-----------------------------------------------


        h p       p p
E------5-6-5---5-------------------------------- 
B----6-------8---8-6-5~~~----------------------- 
G--7-------------------------------------------- 
D----------------------------------------------- 
A----------------------------------------------- 
E-----------------------------------------------


        h p           p p    h h   h h   h h
E------5-6-5---5------------------5-6-8-6-8-10-- 
B----6-------8---8-6-8-6-5--5-6-8--------------- 
G--7-------------------------------------------- 
D----------------------------------------------- 
A----------------------------------------------- 
E-----------------------------------------------
               (Bit of a bluff here I'm afraid!)

    sl.     
E---/10---------------
B---------------------
G---------------------
D---------------------
A---------------------
E---------------------
Comments