Yngwie Malmsteen - Overture 13 Chords & Tabs

 

Overture 13 Chords & Tabs

Yngwie Malmsteen Chords & Tabs

Version: 1 Type: Bass Tab 0 ratings
1 star 2 stars 3 stars 4 stars 5 stars
comments

Overture 13 Bass Tab

Yngwie Malmsteen
Overture 13

Intro (0:13)
|------------------------------------------------|
|------------------------------------------------|
|------------------------------------------------|
|-1-1-1-1-1-1-1-1-1-1-1-1-1-1-1-1----------------|

Chorus (0:16)
|-------------------------------------------------------------------------------|
|-------------------------------------------------------------------------------|
|-1-1------1-1-----------1-1-----1-1-------3-3--------3-3--------3-3-------3-3--|
|-------------------------------------------------------------------------------|

|----------------------------------------------------------------------------------------|
|---------1---------------------------------------2--------------------------------------|
|-------------------1-1--------1-1-------3-4---------------------------------------------|
|-1--1-----------------------------------------------------0---------1-1----11-----------|

Chorus 2nd time (0:30)
|-------------------------------------------------------------------------------|
|-------------------------------------------------------------------------------|
|-1-1------1-1-----------1-1-----1-1-------3-3--------3-3--------3-3-------3-3--|
|-------------------------------------------------------------------------------|

|--------------------------------------------------------------------|
|--------------1-----------------------------------------------------|
|---4----4-----------------------------------------------------------|
|--------------------0---------1--------------1----------------------|

Fill (0:42)
|----------------------------------------------------------------|
|----------------------------------------------------------------|
|----------------------------------------------------------------|
|---5---6-----1---2----------------------------------------------|

Verse (0:45)
|-----------------------------------------------------------------------------|
|-----------------------------------------------------------------------------|
|-----------------------------------------------------------------------------|
|-2---2-----3----3----4----4-----5----5----6---6-------8--9--10--11------\ 0--|


Bridge (0:56)
|-------------------------------------------------------------------------|
|-------------------------------------------------------------------------|        (X4)
|-------------------------------------------------------------------------|
|-1-----1-1-----------------------------------1------1-1------------------|
[ Tab from: http://www.guitartabs.cc/tabs/y/yngwie_malmsteen/overture_13_btab.html ]
Chorus (1:11)
|-------------------------------------------------------------------------------|
|-------------------------------------------------------------------------------|
|-1-1------1-1-----------1-1-----1-1-------3-3--------3-3--------3-3-------3-3--|
|-------------------------------------------------------------------------------|

|-----------------------------------------------------------------------------------|
|---------1---------------------------------------2---------------------------------|
|-------------------1-1--------1-1-------3-4----------------------------------------|
|-1--1-----------------------------------------------------0---------1-1----11------|

Chorus 2nd time (1:26)
|-------------------------------------------------------------------------------|
|-------------------------------------------------------------------------------|
|-1-1------1-1-----------1-1-----1-1-------3-3--------3-3--------3-3-------3-3--|
|-------------------------------------------------------------------------------|

|--------------------------------------------------------------------|
|--------------1-----------------------------------------------------|
|---4----4-----------------------------------------------------------|
|--------------------0---------1--------------1----------------------|

Fill (1:38)
|----------------------------------------------------------------|
|----------------------------------------------------------------|
|----------------------------------------------------------------|
|---5---6-----1---2----------------------------------------------|

Verse (1:40)
|-----------------------------------------------------------------------------|
|-----------------------------------------------------------------------------|
|-----------------------------------------------------------------------------|
|-2---2-----3----3----4----4-----5----5----6---6-------8--9--10--11------\ 0--|


Bridge (1:53)
|--------------------------------------------------------------------------------------------------|
|----------------------------------------------------------------|        (Repeat throughout solo--|
|--------------------------------------------------------------------------------------------------|
|-1-----1-1-----------------------------------1------1-1-------------------------------------------|

Finish (2:34)
|------------------------------------------------------------------|
|------------------------------------------------------------------|
|-----------------------------------------------1------------------|
|--1---1-1-1-1-1-1-1-1-1-1-1-1-1-1-1-------------------------------|
Comments