Yngwie Malmsteen - Evil Eye Chords & Tabs

 

Evil Eye Chords & Tabs

Yngwie Malmsteen Chords & Tabs

Version: 2 Type: Tab 0 ratings
1 star 2 stars 3 stars 4 stars 5 stars
comments

Evil Eye Tab

-------------------------------------------------------------------------------
			     EVIL EYE - Yngwie Malmsteen
-------------------------------------------------------------------------------

Tabbed by: KoDa (Keiran McGowan)
Email: I_was_here_first@hotmail.com

Tuning: Standard (EADGBe)

Comments: I've only tabbed the intro for this because I don't wanna spend a week or two
tabbing the whole song if you guys think my ears are no good, so if you want the rest of
the song rate this tab.
[ Tab from: http://www.guitartabs.cc/tabs/y/yngwie_malmsteen/evil_eye_tab_ver_2.html ]
e|----------------12-------------|--------------------------|
B|-16-14-12----14----16-14-12----|-16-14-12----16-15--13-13-|
G|----------13----------------15-|----------13--------------|
D|-------------------------------|--------------------------|
A|-------------------------------|--------------------------|
E|-------------------------------|--------------------------|

e|----------------12-------------|--------------------------------------|
B|-16-14-12----14----16-14-12----|-16-14-12----16-15h16h18h20--20p18h20-|
G|----------13----------------15-|----------13--------------------------|
D|-------------------------------|--------------------------------------|
A|-------------------------------|--------------------------------------|
E|-------------------------------|--------------------------------------|

Now go rate! ^_^

h = Hammer on
p = Pull off
-------------------------------------------------------------------------------
Comments