Yngwie Malmsteen - Brothers Chords & Tabs

 

Brothers Chords & Tabs

Yngwie Malmsteen Chords & Tabs

Version: 1 Type: Tab 0 ratings
1 star 2 stars 3 stars 4 stars 5 stars
comments

Brothers Tab

Yngwie Malmsteen
Brothers

Intro:                                         
 e---------------------------------------------|
 B--5v-------------------6-3h5-3-1v------------|
 G-----2/10v-9-7-----5-7--------------2/7-5-4--| Here im Lost... 
 D-----------------9---------------------------| To fast for me!
 A---------------------------------------------|
 E---------------------------------------------|
[ Tab from: http://www.guitartabs.cc/tabs/y/yngwie_malmsteen/brothers_tab.html ]
 Ok next thing you do is repeat this but lower down on the freatboard
 Start At B-17...quite simple.
                         
 After That: 		          (Play Faster)
 e-----------------------------------------------|
 B--10--------10-13-12-10----12-13h15-13-12-13v--|
 G-----9-10v--------------12---------------------|
 D-----------------------------------------------| 
 A-----------------------------------------------| 
 E-----------------------------------------------|
 
 e-----------------------------------------------|
 B-15-17-18--17-18-15-18-13-18-12-18---18----18--|
 G-----------------------------------14----12----|
 D-----------------------------------------------|
 A-----------------------------------------------|
 E-----------------------------------------------|

 e----------------------17/19-17v--|
 B------------15/17-15v------------|
 G--14-13-14-----------------------|
 D---------------------------------|
 A---------------------------------|
 E---------------------------------|
Comments