Yngwie Malmsteen - Braveheart Chords & Tabs

 

Braveheart Chords & Tabs

Yngwie Malmsteen Chords & Tabs

Version: 1 Type: Tab 0 ratings
1 star 2 stars 3 stars 4 stars 5 stars
comments

Braveheart Tab

   
Yngwie Malmsteen
Braveheart from "Facing the Animal"

Transcribed by: Nick Beato (entity@netwide.net)

Standard Tuning 
(I think it is standard, I never tried it with the cd. This is one of those 
things I just started playing one day and figurd it out somehow)

this is just the "Irish" part of the song (bridge and outro)
email me the rest if you know how to play it!

* means to start here on repeats

with a bit of distortion (not a lot)

e -------*-------------------------------------|
B -0-0-0-3-0-0-5-0-0-7-0-0-8-7-5-7-0-0-0-0-0-0-|
G ---------------------------------------------|
D ---------------------------------------------|
A ---------------------------------------------|
E ---------------------------------------------|
[ Tab from: http://www.guitartabs.cc/tabs/y/yngwie_malmsteen/braveheart_tab.html ]
ending 1        ending 2
e -------------|-----------
B -----3-5-3---|-3p2p0-----
G -4-6-------6-|-------2~~-
D -------------|-----------
A -------------|-----------
E -------------|-----------

then it changes up a 4th

e -0-0-0-3-0-0-5-0-0-7-0-0-8-7-5-7-0-0-0-0-0-0-|
B -------*-------------------------------------|
G ---------------------------------------------|
D ---------------------------------------------|
A ---------------------------------------------|
E ---------------------------------------------|

ending 1        ending 2
e -----1-3-1---|-3p2p0-----
B -3-5-------5-|-------3~~-
G -------------|-----------
D -------------|-----------
A -------------|-----------
E -------------|-----------

If you have questions, comments, or the rest of the song...
email me: entity@netwide.net
Comments