Yesterdays Rising - Becoming One With Nature Chords & Tabs

 

Becoming One With Nature Chords & Tabs

Yesterdays Rising Chords & Tabs

Version: 1 Type: Tab 0 ratings
1 star 2 stars 3 stars 4 stars 5 stars
comments

Becoming One With Nature Tab

Yesterdays Rising
Song- Becoming one with naturre
by-- usedrags


   (_this is an awsome band......)


Key

\ - slide
... - palm mute
x - stop
( ) - strumming not defined

Intro- 6x

e------------------------------------|
b------------------------------------|
g------------------------------------|  Repeat
d--7\3----10-----5-7-5-7-------------|     6x
a--7\3----10-----5-7-5-7-------------|
d--7\3----10-----5-7-5-7-------------|


Verse- 2x

e------------------------------------------------|
b------------------------------------------------|
g------------00000000----------------------------|
d-777777777-----------777777777---22222222-------|
a-777777777-----------777777777------------------|
d-777777777-----------777777777------------------|     Repeat
  .........           .........                         2x
e---------------------------------------------------|
b---------------------------------------------------|
g------------00000000-------------------------------|
d-777777777-----------333333333--000000000----------|
a-777777777-----------333333333--000000000----------|
d-777777777-----------333333333--000000000----------|
  .........


Interlude- 2x

e-------------------------------------------|
b-------------------------------------------|
g-------------------------------------------|
d--7~------5~-----10~-----5~----------------|  Repeat
a--7~------5~-----10~-----5~----------------|     2x
d--7~------5~-----10~-----5~----------------|

Chorus- 2x

e---------------------------------------|
b---------------------------------------|
g---------------------------------------|  Repeat
d--(7)----(10)----(5)----(3)------------|     2x
a--(7)----(10)----(5)----(3)------------|
d--(7)----(10)----(5)----(3)------------|


Intro- 2x

e------------------------------------|
b------------------------------------|
g------------------------------------|  Repeat
d--7\3----10-----5-7-5-7-------------|     2x
a--7\3----10-----5-7-5-7-------------|
d--7\3----10-----5-7-5-7-------------|


Verse- 2x
[ Tab from: http://www.guitartabs.cc/tabs/y/yesterdays_rising/becoming_one_with_nature_tab.html ]
e------------------------------------------------|
b------------------------------------------------|
g------------00000000----------------------------|
d-777777777-----------777777777---22222222-------|
a-777777777-----------777777777------------------|
d-777777777-----------777777777------------------|     Repeat
  .........           .........                         2x
e---------------------------------------------------|
b---------------------------------------------------|
g------------00000000-------------------------------|
d-777777777-----------333333333--000000000----------|
a-777777777-----------333333333--000000000----------|
d-777777777-----------333333333--000000000----------|
  .........


Chorus- 2x
     (on Second time play 3 longer)
e---------------------------------------|
b---------------------------------------|
g---------------------------------------|  Repeat
d--(7)----(10)----(5)----(3)------------|     2x
a--(7)----(10)----(5)----(3)------------|
d--(7)----(10)----(5)----(3)------------|
                          _


Verse 2- 2x

e-------------------------------------|
b-------------------------------------|
g-------------------------------------|
d-77x---7577x----7577x----753333------|
a-77x---7577x----7577x----753333------|
d-77x---7577x----7577x----753333------|

e----------------------------------------|
b----------------------------------------|
g----------------------------------------|  Repeat Verse
d-77x---7577x----7577x----7533330~-------|       2x
a-77x---7577x----7577x----7533330~-------|
d-77x---7577x----7577x----7533330~-------|


Verse 3- 2x
               (timming is very easy to find)
e------------------------------------------|
b------------------------------------------|
g------------------------------------------|   Repeat
d-77x----77x----77x----33333333-55555555---|      2x
a-77x----77x----77x----33333333-55555555---|
d-77x----77x----77x----33333333-55555555---|


Interlude- 2x

e-------------------------------------------|
b-------------------------------------------|
g-------------------------------------------|
d--7~------5~-----10~-----5~----------------|  Repeat
a--7~------5~-----10~-----5~----------------|     2x
d--7~------5~-----10~-----5~----------------|


Chorus- 2x
     (on Second time play 3 longer)
e---------------------------------------|
b---------------------------------------|
g---------------------------------------|  Repeat
d--(7)----(10)----(5)----(3)------------|     2x
a--(7)----(10)----(5)----(3)------------|
d--(7)----(10)----(5)----(3)------------|
                          _


Intro- 2x

e------------------------------------|
b------------------------------------|
g------------------------------------|  Repeat
d--7\3----10-----5-7-5-7-------------|     2x
a--7\3----10-----5-7-5-7-------------|
d--7\3----10-----5-7-5-7-------------|
Comments