Yes - Starship Trooper Chords & Tabs

 

Starship Trooper Chords & Tabs

Yes Chords & Tabs

Version: 4 Type: Tab

Starship Trooper Tab

   
             Starship Trooper Part 2: Disillusion (Steve Howe)
                             The Yes Album
                                  YES
[ Tab from: http://www.guitartabs.cc/tabs/y/yes/starship_trooper_tab_ver_4.html ]
Acoustic:
  E               Dsus2          G6             A
|---0---0----0------0-------0------0-------0---------------------|
|---0---0---0-0-----3-3----3-3-----3-3----3-3-----3---2----------|
|---1---1--1---1----2--2--2---2----0--0--0---0----2---2---2---2--|
|---------2-------0------0--------------0---------2---2---2----2-|
|-----2--------------0-------0-------2-------2--0---0---0---0----|
|-0------------------------------3-------3-----------------------|

  E               Dsus2          G6             A
|---0---0----0------0-------0------0-------0--------------------|
|---0---0---0-0-----3-3----3-3-----3-3----3-3----3---2----------|
|---1---1--1---1----2--2--2---2----0--0--0---0----2---22--2-----|
|---------2-------0------0--------------0----------2---2--2-----|
|-----2--------------0-------0-------2-------2--0------0--0-0-0-|
|-0------------------------------3-------3----------0-----------|